» » »

Black Tabs (ver.1)

Artists:  A B C D E F G H I J K L M N O P Q R S T U V W X Y Z # 

Black Tabs (ver.1)

Motionless In White
Rating:
0/5 (0 votes)

Hard to play? Try these video lessons and learn fast.
                Song - Black
Band - Motionless in White
Album - The Whorror

Drop B

Guitar One (i cant figure out the feedback part one the beginning so heres when 
the next part comes in)

Intro and verse until the word "Smeared" is said by Chris 

e|-------------|
B|-------14----|
G|----13----13-|
D|-11----------|
A|-------------|
D|-------------|

"Smeared Across her cheeks like the wax of an expiring candle"  (this part is played 2 times)

e|-------------------------------------------------------------------------|
B|-------------------------------------------------------------------------|
G|-------------------------------------------------------------------------|
D|-4--4-4-4-4--4-4-4-6--6-6-6-7--7-7-7-0--0-0-0-0--0-0-0-7--7-7-7-6--6-6-6-|
A|-4--4-4-4-4--4-4-4-6--6-6-6-7--7-7-7-0--0-0-0-0--0-0-0-7--7-7-7-6--6-6-6-|
D|-4--4-4-4-4--4-4-4-6--6-6-6-7--7-7-7-0--0-0-0-0--0-0-0-7--7-7-7-6--6-6-6-|

"So f**king Beautiful Your Porcelain f**king Face" this part played twice

e|---------------------------------------------|
B|---------------------------------------------|
G|---------------------------------------------|
D|-4~--4~--4~--4~--4-4--0~--0~--0~--0~--0~-0~--|
A|-4~--4~--4~--4~--4-4--0~--0~--0~--0~--0~-0~--|
D|-4~--4~--4~--4~--4-4--0~--0~--0~--0~--0~-0~--|

"Just know I'd Kill You . . ."  this part is played once (the 5's on the A string are harmonics) 

e|-----------------------------------------------------------------|
B|-----------------------------------------------------------------|
G|-----------------------------------------------------------------|
D|-----------------------------------------------------------------|
A|-----5-----5----5----5----5---5----5-----5----5----5-----5----5--|
D|--4-----4-----4---4-----4---4---0-----0-----0---0-----0-----0----|

This is played four times as song fades out:

e|--------|--------|
B|--------|--------|
G|--------|--------|
D|-4~-----|-0~-----|
A|-4~-----|-0~-----|
D|-4~-----|-0~-----|

~~~~~~~~~~~~~~~~~~~~~~~~~~~~~~~~~~~~~~~~~~~~~~~~~~~~~~~~~~~~~~~~~~~~~~~~~~~~

Guitar Two

Part One (this is played a lot lol)

e|-------------|
B|-------10----|
G|----13----13-|
D|-11----------|
A|-------------|
D|-------------|

Part two (this is played four times)

e|-------------------------------|
B|-7~----9~--10~--------10~--9~--|
G|----------------7~-------------|
D|-------------------------------|
A|-------------------------------|
D|-------------------------------|

part three this is played twice

e|---------9~----|
B|-12~----10~----|
G|-14~-----------|
D|---------------|
A|---------------|
D|---------------|

then its part one (same as part one above ^ ) until the end as the song fades out

or message me on my profile.
either works

see ya

-Nick
            
Hard to play? Try these video lessons and learn fast. | Correct




comments powered by Disqus
↑ Back to top | Tablatures and chords are parodies/interpretations of the original songs. You may use it for private study, scholarship, research or language learning purposes only