>
 >
Disappear

Disappear Guitar Tabs

Motion City Soundtrack - Disappear chords, tabs, tablatures, lyrics

Guitar lessons | Add/correct | Request | Top 50 tabs Artists:  A B C D E F G H I J K L M N O P Q R S T U V W X Y Z 0-9

Disappear Guitar Tabs – Motion City Soundtrack

CD, Sheet music, Poster

Do you like Disappear? Share with your friends now
TabsTabs v2Tabs v3Tabs v4Tabs v5
Band: Motion City Soundtrack
Tuning: Standard

     Overall, this song is very easy. Keep it light on the comments, no rubbish, ok?
is my first tab I've never actually had time to attempt to finish, and I've known how much
you peeps out there have been wanting to play it. (yes, i do know that the CAN YOU FEEL 
part is off. i just couldn't find it out. comment to help me, and i like how it
i'll put it in.)

| /   slide up
| \   slide down
| h   hammer-on
| p   pull-off
| ~   vibrato
| +   harmonic
| x   Mute note
| b   Bend
| pb  Pre-bend
| br  Bend release
| pbr Pre-bend release
| brb Bend release bend


 Let Ring
|---------|-----------------------------------------------------------------|
|---------|-----------------------------------------------------------------|
|-3-------|--3----------------3---------------------------------------------|
|-3-------|--3----------------3---------------------------------------------|
|-1-------|--1----------------1---------------------------------------------|
|---------|-----------------------------------------------------------------|
             To the Deep End, To the heartline
|---------------------------------------------------------------------------|
|---------------------------------------------------------------------------|
|---------------------------------------------------------------------------|
|-4-4-4-4-4-4-4-4--6-6-6-6-6-6-6-6------------------------------------------|
|-4-4-4-4-4-4-4-4--6-6-6-6-6-6-6-6------------------------------------------|
|-2-2-2-2-2-2-2-2--4-4-4-4-4-4-4-4------------------------------------------|

|---------------------------------------------------------------------------|
|---------------------------------------------------------------------------|
|-3-3-3-3-3-3-3-3-----------------------------------------------------------|
|-3-3-3-3-3-3-3-3--3-3-3-3-3-3-3-3--4-4-4-4-4-4-4-4--6-6-6-6-6-6-6-6--------|
|-1-1-1-1-1-1-1-1--3-3-3-3-3-3-3-3--4-4-4-4-4-4-4-4--6-6-6-6-6-6-6-6--------|
|------------------1-1-1-1-1-1-1-1--2-2-2-2-2-2-2-2--4-4-4-4-4-4-4-4--------|

|---------------------------------------------------------------------------|
|---------------------------------------------------------------------------|
|3-3-3-3-3-3-3-3------------------------------------------------------------|
|3-3-3-3-3-3-3-3--3-3-3-3-3-3-3-3--4-4-4-4-4-4-4-4--6-6-6-6-6-6-6-6---------|
|1-1-1-1-1-1-1-1--3-3-3-3-3-3-3-3--4-4-4-4-4-4-4-4--6-6-6-6-6-6-6-6---------|
|-----------------1-1-1-1-1-1-1-1--2-2-2-2-2-2-2-2--4-4-4-4-4-4-4-4---------|

|-----------------------------------------------------------------------------|
|-----------------------------------------------------------------------------|
|3-3-3-3-3-3-3-3--------------------------------------------------------------|
|3-3-3-3-3-3-3-3--3-3-3-3-3-3-3-3--4-4-4-4-4-4-4-4--6-6-6-6-6-6-6-6-----------|
|1-1-1-1-1-1-1-1--3-3-3-3-3-3-3-3--4-4-4-4-4-4-4-4--6-6-6-6-6-6-6-6-----------|
|-----------------1-1-1-1-1-1-1-1--2-2-2-2-2-2-2-2--4-4-4-4-4-4-4-4-----------|

|---------------------------------------------------------------------------|
|---------------------------------------------------------------------------|
|-----------------6-6-6-6-6-6-6-6-------------------------------------------|
|4-4-4-4-4-4-4-4--6-6-6-6-6-6-6-6--1-1-1-1-1-1-1-1--4-4-4-4-4-4-4-----------|
|4-4-4-4-4-4-4-4--4-4-4-4-4-4-4-4--1-1-1-1-1-1-1-1--4-4-4-4-4-4-4-----------|
|2-2-2-2-2-2-2-2-------------------x-x-x-x-x-x-x-x--2-2-2-2-2-2-2-----------|

|---------------------------------------------------------------------------|
|---------------------------------------------------------------------------|
|---------------------------------------------------------------------------|
|6-6-6-6-6-6-6-6------------------------------------------------------------|
|6-6-6-6-6-6-6-6------------------------------------------------------------|
|4-4-4-4-4-4-4-4------------------------------------------------------------|

|---------------------------------------------------------------------------|
|---------------------------------------------------------------------------|
|-----------------6-6-6-6-6-6-6-6-------------------------------------------|
|4-4-4-4-4-4-4-4--6-6-6-6-6-6-6-6--1-1-1-1-1-1-1-1--4-4-4-4-4-4-4-----------|
|4-4-4-4-4-4-4-4--4-4-4-4-4-4-4-4--1-1-1-1-1-1-1-1--4-4-4-4-4-4-4-----------|
|2-2-2-2-2-2-2-2-------------------x-x-x-x-x-x-x-x--2-2-2-2-2-2-2-----------|

|---------------------------------------------------------------------------|
|---------------------------------------------------------------------------|
|---------------------------------------------------------------------------|
|6-6-6-6-6-6-6-6------------------------------------------------------------|
|6-6-6-6-6-6-6-6------------------------------------------------------------|
|4-4-4-4-4-4-4-4------------------------------------------------------------|

|---------------------------------------------------------------------------|
|------------------13-9----------------------------13-9---------------------|
|3---10-11-10-13-8--------------15-13--10-11-10-13--------------------------|
|3----------------------11-10-8-------------------------11-10-8-6-4-2-------|
|1--------------------------------------------------------------------------|
|---------------------------------------------------------------------------|

|---------------------------------------------------------------------------|
|---------------------------------------------------------------------------|
|---------------------------------------------------------------------------|
|-------------------6----6----3---------------------------------------------|
|-------------------6----6----3---------------------------------------------|
|-------------------4----4----1---------------------------------------------|
 Until it sticks, until it sticks

|---------------------------------------------------------------------------|
|---------------------------------------------------------------------------|
|-----------------6-6-6-6-6-6-6-6-------------------------------------------|
|4-4-4-4-4-4-4-4--6-6-6-6-6-6-6-6--1-1-1-1-1-1-1-1--4-4-4-4-4-4-4-----------|
|4-4-4-4-4-4-4-4--4-4-4-4-4-4-4-4--1-1-1-1-1-1-1-1--4-4-4-4-4-4-4-----------|
|2-2-2-2-2-2-2-2-------------------x-x-x-x-x-x-x-x--2-2-2-2-2-2-2-----------|

|---------------------------------------------------------------------------|
|---------------------------------------------------------------------------|
|---------------------------------------------------------------------------|
|6-6-6-6-6-6-6-6------------------------------------------------------------|
|6-6-6-6-6-6-6-6------------------------------------------------------------|
|4-4-4-4-4-4-4-4------------------------------------------------------------|

|---------------------------------------------------------------------------|
|---------------------------------------------------------------------------|
|-----------------6-6-6-6-6-6-6-6-------------------------------------------|
|4-4-4-4-4-4-4-4--6-6-6-6-6-6-6-6--1-1-1-1-1-1-1-1--4-4-4-4-4-4-4-----------|
|4-4-4-4-4-4-4-4--4-4-4-4-4-4-4-4--1-1-1-1-1-1-1-1--4-4-4-4-4-4-4-----------|
|2-2-2-2-2-2-2-2-------------------x-x-x-x-x-x-x-x--2-2-2-2-2-2-2-----------|

|---------------------------------------------------------------------------|
|---------------------------------------------------------------------------|
|---------------------------------------------------------------------------|
|6-6-6-6-6-6-6-6------------------------------------------------------------|
|6-6-6-6-6-6-6-6------------------------------------------------------------|
|4-4-4-4-4-4-4-4------------------------------------------------------------|

|---------------------------------------------------------------------------|
|---------------------------------------------------------------------------|
|-----------------6-6-6-6-6-6-6-6-------------------------------------------|
|4-4-4-4-4-4-4-4--6-6-6-6-6-6-6-6--1-1-1-1-1-1-1-1--4-4-4-4-4-4-4-----------|
|4-4-4-4-4-4-4-4--4-4-4-4-4-4-4-4--1-1-1-1-1-1-1-1--4-4-4-4-4-4-4-----------|
|2-2-2-2-2-2-2-2-------------------x-x-x-x-x-x-x-x--2-2-2-2-2-2-2-----------|

|---------------------------------------------------------------------------|
|---------------------------------------------------------------------------|
|---------------------------------------------------------------------------|
|6-6-6-6-6-6-6-6------------------------------------------------------------|
|6-6-6-6-6-6-6-6------------------------------------------------------------|
|4-4-4-4-4-4-4-4------------------------------------------------------------|

|---------------------------------------------------------------------------|
|---------------------------------------------------------------------------|
|-----------------6-6-6-6-6-6-6-6-------------------------------------------|
|4-4-4-4-4-4-4-4--6-6-6-6-6-6-6-6--1-1-1-1-1-1-1-1--4-4-4-4-4-4-4-----------|
|4-4-4-4-4-4-4-4--4-4-4-4-4-4-4-4--1-1-1-1-1-1-1-1--4-4-4-4-4-4-4-----------|
|2-2-2-2-2-2-2-2-------------------x-x-x-x-x-x-x-x--2-2-2-2-2-2-2-----------|

|---------------------------------------------------------------------------|
|---------------------------------------------------------------------------|
|---------------------------------------------------------------------------|
|6-6-6-6-6-6-6-6------------------------------------------------------------|
|6-6-6-6-6-6-6-6------------------------------------------------------------|
|4-4-4-4-4-4-4-4------------------------------------------------------------|

|---------------------------------------------------------------------------|
|---------------------------------------------------------------------------|
|--8-88-88-88------8-88-88-88------8-88-88-88-------------------------------|
|--8-88-88-88------8-88-88-88------8-88-88-88------444-6--------------------|
|--6-66-66-66------6-66-66-66------6-66-66-66------444-6--------------------|
|-------------2/--------------2/--------------2/---222-4--------------------|

|---------------------------------------------------------------------------|
|---------------------------------------------------------------------------|
|--8-88-88-88------8-88-88-88------8-88-88-88-------------------------------|
|--8-88-88-88------8-88-88-88------8-88-88-88------444-6--------------------|
|--6-66-66-66------6-66-66-66------6-66-66-66------444-6--------------------|
|-------------2/--------------2/--------------2/---222-4--------------------|

|---------------------------------------------------------------------------|
|---------------------------------------------------------------------------|
|--8-88-88-88------8-88-88-88------8-88-88-88-------------------------------|
|--8-88-88-88------8-88-88-88------8-88-88-88------444-6--------------------|
|--6-66-66-66------6-66-66-66------6-66-66-66------444-6--------------------|
|-------------2/--------------2/--------------2/---222-4--------------------|

|---------------------------------------------------------------------------|
|---------------------------------------------------------------------------|
|--8-88-88-88------8-88-88-88------8-88-88-88-------------------------------|
|--8-88-88-88------8-88-88-88------8-88-88-88------444-6--------------------|
|--6-66-66-66------6-66-66-66------6-66-66-66------444-6--------------------|
|-------------2/--------------2/--------------2/---222-4--------------------|

|---------------------------------------------------------------------------|
|---------------------------------------------------------------------------|
|-3-3-3--5-5-5--6-6-6--8-8-8-----------3-3-3--5-5-5--6-6-6--8-8-8-----------|
|-3-3-3--5-5-5--6-6-6--8-8-8--6-6-6-6--3-3-3--5-5-5--6-6-6--8-8-8--6-6-6-6--|
|-1-1-1--3-3-3--4-4-4--6-6-6--6-6-6-6--1-1-1--3-3-3--4-4-4--6-6-6--6-6-6-6--|
|-----------------------------4-4-4-4------------------------------4-4-4-4--|

(palm muted)
|---------------------------------------------------------------------------|
|---------------------------------------------------------------------------|
|-----------------6-6-6-6-6-6-6-6-------------------------------------------|
|4-4-4-4-4-4-4-4--6-6-6-6-6-6-6-6--1-1-1-1-1-1-1-1--4-4-4-4-4-4-4-----------|
|4-4-4-4-4-4-4-4--4-4-4-4-4-4-4-4--1-1-1-1-1-1-1-1--4-4-4-4-4-4-4-----------|
|2-2-2-2-2-2-2-2-------------------x-x-x-x-x-x-x-x--2-2-2-2-2-2-2-----------|
 . . . . . . . .  . . . . . . . .  . . . . . . . .  . . . . . . .
|---------------------------------------------------------------------------|
|---------------------------------------------------------------------------|
|---------------------------------------------------------------------------|
|6-6-6-6-6-6-6-6------------------------------------------------------------|
|6-6-6-6-6-6-6-6------------------------------------------------------------|
|4-4-4-4-4-4-4-4------------------------------------------------------------|
 . . . . . . . .                                                  |Let Ring
|-----------------------------------------------------------------|-----------|
|-----------------------------------------------------------------|-----------|
|-----------------6-6-6-6-6-6-6-6---------------------------------|-----------|
|4-4-4-4-4-4-4-4--6-6-6-6-6-6-6-6--1-1-1-1-1-1-1-1--4-4-4-4-4-4-4-|--6--------|
|4-4-4-4-4-4-4-4--4-4-4-4-4-4-4-4--1-1-1-1-1-1-1-1--4-4-4-4-4-4-4-|--6--------|
|2-2-2-2-2-2-2-2-------------------x-x-x-x-x-x-x-x--2-2-2-2-2-2-2-|--4--------|
 . . . . . . . .  . . . . . . . .  . . . . . . . .  . . . . . . .     --------|

|---------------------------------------------------------------------------|
|---------------------------------------------------------------------------|
|-----------------6-6-6-6-6-6-6-6-------------------------------------------|
|4-4-4-4-4-4-4-4--6-6-6-6-6-6-6-6--1-1-1-1-1-1-1-1--4-4-4-4-4-4-4-----------|
|4-4-4-4-4-4-4-4--4-4-4-4-4-4-4-4--1-1-1-1-1-1-1-1--4-4-4-4-4-4-4-----------|
|2-2-2-2-2-2-2-2-------------------x-x-x-x-x-x-x-x--2-2-2-2-2-2-2-----------|

|---------------------------------------------------------------------------|
|---------------------------------------------------------------------------|
|---------------------------------------------------------------------------|
|6-6-6-6-6-6-6-6------------------------------------------------------------|
|6-6-6-6-6-6-6-6------------------------------------------------------------|
|4-4-4-4-4-4-4-4------------------------------------------------------------|

|---------------------------------------------------------------------------|
|---------------------------------------------------------------------------|
|-----------------6-6-6-6-6-6-6-6-------------------------------------------|
|4-4-4-4-4-4-4-4--6-6-6-6-6-6-6-6--1-1-1-1-1-1-1-1--4-4-4-4-4-4-4-----------|
|4-4-4-4-4-4-4-4--4-4-4-4-4-4-4-4--1-1-1-1-1-1-1-1--4-4-4-4-4-4-4-----------|
|2-2-2-2-2-2-2-2-------------------x-x-x-x-x-x-x-x--2-2-2-2-2-2-2-----------|

|---------------------------------------------------------------------------|
|---------------------------------------------------------------------------|
|---------------------------------------------------------------------------|
|6-6-6-6-6-6-6-6------------------------------------------------------------|
|6-6-6-6-6-6-6-6------------------------------------------------------------|
|4-4-4-4-4-4-4-4------------------------------------------------------------|
|---------------------------------------------------------------------------|
|---------------------------------------------------------------------------|
|-----------------6-6-6-6-6-6-6-6-------------------------------------------|
|4-4-4-4-4-4-4-4--6-6-6-6-6-6-6-6--1-1-1-1-1-1-1-1--4-4-4-4-4-4-4-----------|
|4-4-4-4-4-4-4-4--4-4-4-4-4-4-4-4--1-1-1-1-1-1-1-1--4-4-4-4-4-4-4-----------|
|2-2-2-2-2-2-2-2-------------------x-x-x-x-x-x-x-x--2-2-2-2-2-2-2-----------|

|---------------------------------------------------------------------------|
|---------------------------------------------------------------------------|
|---------------------------------------------------------------------------|
|6-6-6-6-6-6-6-6------------------------------------------------------------|
|6-6-6-6-6-6-6-6------------------------------------------------------------|
|4-4-4-4-4-4-4-4------------------------------------------------------------|

|---------------------------------------------------------------------------|
|---------------------------------------------------------------------------|
|-----------------6-6-6-6-6-6-6-6-------------------------------------------|
|4-4-4-4-4-4-4-4--6-6-6-6-6-6-6-6--1-1-1-1-1-1-1-1--4-4-4-4-4-4-4-----------|
|4-4-4-4-4-4-4-4--4-4-4-4-4-4-4-4--1-1-1-1-1-1-1-1--4-4-4-4-4-4-4-----------|
|2-2-2-2-2-2-2-2-------------------x-x-x-x-x-x-x-x--2-2-2-2-2-2-2-----------|

|---------------------------------------------------------------------------|
|---------------------------------------------------------------------------|
|---------------------------------------------------------------------------|
|6-6-6-6-6-6-6-6------------------------------------------------------------|
|6-6-6-6-6-6-6-6------------------------------------------------------------|
|4-4-4-4-4-4-4-4------------------------------------------------------------|

Outro
|---------------------------------------------------------------------------|
|---------------------------------------------------------------------------|
|-----------------6-6-6-6-6-6-6-6-------------------------------------------|
|4-4-4-4-4-4-4-4--6-6-6-6-6-6-6-6--1-1-1-1-1-1-1-1--4-4-4-4-4-4-4-----------|
|4-4-4-4-4-4-4-4--4-4-4-4-4-4-4-4--1-1-1-1-1-1-1-1--4-4-4-4-4-4-4-----------|
|2-2-2-2-2-2-2-2-------------------x-x-x-x-x-x-x-x--2-2-2-2-2-2-2-----------|

                                                     | Let Ring
|----------------------------------------------------|----------------------|
|----------------------------------------------------|----------------------|
|----------------------------------------------------|----------------------|
|6-6-6-6-6-6-6-6--1-1-1-1-1-1-1-1--4-4-4-4--6-6-6-6--|---1------------------|
|6-6-6-6-6-6-6-6--1-1-1-1-1-1-1-1--4-4-4-4--6-6-6-6--|---1------------------|
|4-4-4-4-4-4-4-4--x-x-x-x-x-x-x-x--2-2-2-2--4-4-4-4--|---x------------------|
                                                     |





Comments


Popular Motion City Soundtrack tabs & chords
Atractive Today Bass Tabs
Resolution Bass Tabs
When Youre Around Bass Tabs
Worker Bee Bass Tabs
Broken Heart Intro Drum Tabs
At Exclamation Sharp Question At Exclamation Tabs
Autographs And Apologies Tabs
My Favorite Accident 2 Tabs
True Romance Tabs
Happy Anniversary Ukulele


Song lyrics



↑ Back to top | Tablatures and chords are parodies/interpretations of the original songs. You may use it for private study, scholarship, research or language learning purposes only
© 2014 AZChords.com Contact us | Privacy policy | DMCA | Add/correct tabs | Request tabs | Top 50 tabs