» » »

Mother Mother, Hayloft Tabs (ver.1)

Artists:  A B C D E F G H I J K L M N O P Q R S T U V W X Y Z # 

Hayloft Tabs (ver.1)

Mother Mother Tabs
 Rating:
4.6/5 (11 votes)
Hayloft lessons Tabs too difficult? Try these video lessons and learn fast
                

Awesome song. And, surprisingly, pretty simple.
Standard tuning.

Main Riff:
------------------------------------------------------------------------------|
------------------------------------------------------------------------------|
------------------------------------------------------------------------------|
------7-5-7-5-7-5-7-5--7---7---7---7-6--7---7---7---7---7-6-7-6-7-6-7-6-------|
------------------------------------------8---8---8---8-----------------------|
-------------------------8---8---8--------------------------------------------|

This comes in the second time, I think:
------------------------------------------------------------------------------|
------------------------------------------------------------------------------|
------2~~~~~~~~~~~~~~~~~~~~~~~~~~~~~~~~~~~~~~~~~~~~~~~~~~~~~~~~~~~~~~~~-------|
------2~~~~~~~~~~~~~~~~~~~~~~~~~~~~~~~~~~~~~~~~~~~~~~~~~~~~~~~~~~~~~~~~-------|
------0~~~~~~~~~~~~~~~~~~~~~~~~~~~~~~~~~~~~~~~~~~~~~~~~~~~~~~~~~~~~~~~~-------|
------------------------------------------------------------------------------|


Bass part (I think that's it for the entire song):
------------------------------------------------------------------------------|
------------------------------------------------------------------------------|
------------------------------------------------------------------------------|
------5-----5----/-----8-----8-----/----1-----1-----/---4-----4---------------|

Main riff variation (a bit tricky):
------------------------------------------------------------------------------|
------------------------------------------------------------------------------|
--------------------------------------5---------------------------------------|
------7-5-7-5-7-----5--7-5-7------5-7----7---7---7---7----7-6-7-6-7-6-7-6-----|
------------------7-------------7----------8---8---8---8----------------------|
----------------8-------------8-----------------------------------------------|

The "Ahhh yaahh yah yah!" part:                   First ending:
----------------5--------------5------------5-7--|-----7--5-------------------|
----5-5--5-6-8-----5-5--5-6-8-----6-6--6-8-------|--5--------8----------------|
-------------------------------------------------|----------------------------|
-------------------------------------------------|----------------------------|
-------------------------------------------------|----------------------------|
-------------------------------------------------|----------------------------|

Second ending (I suggest some slight bending here, whatever, though):
---------------------------------|
----4b-r-4br-4br-4br-4br-4br-----|
---------------------------------|
---------------------------------|
---------------------------------|
---------------------------------|

BEW!:     Jangly bit (Chords for the entire song for you coffeehousers):
---------|--------------------------------------------------------------------|
---------|--1--1--1-1-1-1--1--1--1-1-1-1--1--1--1-1-1-1--4--4--4-4-4-4--------|
---------|--2--2--2-2-2-2--0--0--0-0-0-0--2--2--2-2-2-2--5--5--5-5-5-5--------|
---------|--2--2--2-2-2-2--2--2--2-2-2-2--3--3--3-3-3-3--6--6--6-6-6-6--------|
----7-\--|--0--0--0-0-0-0--3--3--3-3-3-3--3--3--3-3-3-3--6--6--6-6-6-6--------|
---------|--------------------------------1--1--1-1-1-1--4--4--4-4-4-4--------|

And the muted part... Don't know why I tabbed it, really:
-----x--x--x-x-x-x------------------------------------------------------------|
-----x--x--x-x-x-x------------------------------------------------------------|
-----x--x--x-x-x-x-etc.-------------------------------------------------------|
-----x--x--x-x-x-x------------------------------------------------------------|
-----x--x--x-x-x-x------------------------------------------------------------|
-----x--x--x-x-x-x------------------------------------------------------------|
 "Young lovers with their legs tied up in knots!"
            
Submit corrections

comments powered by Disqus
↑ Back to top | Mother Mother Tabs for Hayloft. Lyrics for acoustic guitar and electric guitar. Tablatures and chords are parodies/interpretations of the original songs. You may use it for private study, scholarship, research or language learning purposes only