>
 >
Pure

Pure Guitar Tabs

Mors Principium Est - Pure chords, tabs, tablatures, lyrics

Guitar lessons | Add/correct | Request | Top 50 tabs Artists:  A B C D E F G H I J K L M N O P Q R S T U V W X Y Z 0-9

Pure Guitar Tabs – Mors Principium Est

CD, Sheet music, Poster

Do you like Pure? Share with your friends now
Tabs
-------------------------------------------------------------------------------
-------------------------------------------------------------------------------

Tuning:Standard(EADGBE)

| /  slide up
| \  slide down
| h  hammer-on
| p  pull-off
| ~  vibrato
| +  harmonic
| x  Mute note

Intro
E|----------------------------------------|
B|o---------------------------------------|
G|----------------------------------------|
D|o---------------------------------------|
A|---7-7---7-7---7-7---7-7---7-7----------|
e|-------0-----0-----0-----0-----0-0-0-0--|
Pm       .     .     .     .     . . . .
And so on, every single open stroke on the 6th string is Palm Muted

|---------------------------------------|
|---------------------------------------|
|---------------------------------------|
|---------------------------------------|
|---9-9---9-9---9-9---9-9---9-9---------|
|-------0-----0-----0-----0-----0-0-0-0-|


|------------------------------------------------|
|------------------------------------------------|
|------------------------------------------------|
|------------------------------------------------|
|---10-10---10-10---10-10---10-10---10-10--------|
|---------0-------0-------0-------0-------0-0-0-0|


|----------------------------------------------------|
|---------------------------------------------------o|
|----------------------------------------------------|
|---------------------------------------------------o|
|---12-12---12-12---12-12---12-12---12-12------------|
|---------0-------0-------0-------0-------0-10-9-7-9-|

Riff 1

|---------------------------------------------------------------|
|o--------------------------------------------------------------|
|---------------------------------------------------------------|
|o--------------------------------------------------------------|
|---7-----7-----7-----7-----7---7/9-----9-----9-----9-----9-----|
|-----0-0---0-0---0-0---0-0---------0-0---0-0---0-0---0-0---0-0-|

|--------------------------------------------------------------------------|
|--------------------------------------------------------------------------|
|--------------------------------------------------------------------------|
|--------------------------------------------------------------------------|
|-9/10-----10-----10-----10-----10---10/12-----12-----12-----12-----12-----|
|------0-0----0-0----0-0----0-0------------0-0----0-0----0-0----0-0----0-0-|


|-------------------------|
|-------------------------|
|------------------------o|
|-------------------------|
|---10-10-9-9-10-10-9-9--o|
|-------------------------|


Prelude
|-------------|
|-------------|
|----5--4--7--|
|-2--5--4--7--|
|-2--3--2--5--|
|-0-----------|       Played two times


Break

Verse riff
|--------------------------------------------------------------------|
|--------------------------------------------------------------------|
|--------------------------------------------------------------------|
|-----------------------7--------------------------------------------|
|--7-----------9----------10-9--------7-----------9--------3h5--7h9--|
|----0-0-7-0-0---0-0-7---------7--------0-0-7-0-0---0-0-8------------|


|------------------------------------------------------------------------|
|------------------------------------------------------------------------|
|------------------------------------------------------------------------|
|-----------------------7----------2--x--2--x--2--x--2-------------------|
|--7-----------9----------10-9-----0--x--0--x--0--x--0--2-2-2-2-2-2-2-2--|
|----0-0-7-0-0---0-0-7---------7-----------------------------------------|
Pm                                                      . . . . . . . .


Chorus riff


|-----------------------------------------------------------|
|-----------------------------------------------------------|
|--5------5------5/7------------------5----5-------4----4---|
|--5------5------5/7----2----2----5---5----5-------4----4---|
|--3------3------3/5----2----2----5---3----3-------2----2---|
|-----------------------0----0----3-------------------------|


|-----------------------------------------------------------|
|-----------------------------------------------------------|
|--2------2------2/5------------------5----5-------4----4---|
|--2------2------2/5----2----2----5---5----5-------4----4---|
|--0------0------0/3----2----2----5---3----3-------2----2---|
|-----------------------0----0----3-------------------------|

Riff 1
|---------------------------------------------------------------|
|o--------------------------------------------------------------|
|---------------------------------------------------------------|
|o--------------------------------------------------------------|
|---7-----7-----7-----7-----7---7/9-----9-----9-----9-----9-----|
|-----0-0---0-0---0-0---0-0---------0-0---0-0---0-0---0-0---0-0-|


|--------------------------------------------------------------------------|
|--------------------------------------------------------------------------|
|--------------------------------------------------------------------------|
|--------------------------------------------------------------------------|
|-9/10-----10-----10-----10-----10---10/12-----12-----12-----12-----12-----|
|------0-0----0-0----0-0----0-0------------0-0----0-0----0-0----0-0----0-0-|


|-------------------------|
|-------------------------|
|------------------------o|
|-------------------------|
|---10-10-9-9-10-10-9-9--o|
|-------------------------|

Prelude
|--------------|
|o------------o|
|-----5--4--7--|
|--2--5--4--7--|
|o-2--3--2--5-o|
|--0-----------|


Verse Riff
|--------------------------------------------------------------------|
|--------------------------------------------------------------------|
|--------------------------------------------------------------------|
|-----------------------7--------------------------------------------|
|--7-----------9----------10-9--------7-----------9--------3h5--7h9--|
|----0-0-7-0-0---0-0-7---------7--------0-0-7-0-0---0-0-8------------|


|------------------------------------------------------------------------|
|------------------------------------------------------------------------|
|------------------------------------------------------------------------|
|-----------------------7----------2--x--2--x--2--x--2-------------------|
|--7-----------9----------10-9-----0--x--0--x--0--x--0--2-2-2-2-2-2-2-2--|
|----0-0-7-0-0---0-0-7---------7-----------------------------------------|


Strumming break
|---------------------------------------------------------------|
|--12----10-10-10-10----7/8-8-8-7---5--5-5--5--5-5-5-5----------|
|--x-----x--x--x--x-----x---x-x-x---x--x-x--x--x-x-x-x----------|
|--9-----7--7--7--7-----4/5-5-5-4---2--2-2--2--2-2-2-2----------|
|---------------------------------------------------------------|
|---------------------------------------------------------------|

|--------------------------------------------------------------------------|
|--/12----10-10-10-10----/15-15-15-13----12-12-12--12--12-12--12-12--------|
|--/------x--x--x--x-----/---x--x--x-----x--x--x---x---x--x---x--x---------|
|--/9-----7--7--7--7-----/12-12-12-10----9--9--9---9---9--9---9--9---------|
|--------------------------------------------------------------------------|
|--------------------------------------------------------------------------|


|---------------------------------------------------------------|
|--12----10-10-10-10----7/8-8-8-7---5--5-5--5--5-5-5-5----------|
|--x-----x--x--x--x-----x---x-x-x---x--x-x--x--x-x-x-x----------|
|--9-----7--7--7--7-----4/5-5-5-4---2--2-2--2--2-2-2-2----------|
|---------------------------------------------------------------|
|---------------------------------------------------------------|


|---------------------------------------------|
|--/8-8----7--7-7--7-7----7--7-7-7/9--9-9-9---|
|--/--x----x--x-x--x-x----x--x-x-x----x-x-x---|
|--/5-5----4--4-4--4-4----5--5-5-5/7--7-7-7---|
|---------------------------------------------|
|---------------------------------------------|

and the second time
|---------------------------------|
|--12----10------8-----7---5------|
|---------------------------------|
|--9-----7-------5-----4---2------|
|---------------------------------|
|---------------------------------|

|-----------------------------------|
|--/12----10-------15---13--12------|
|-----------------------------------|
|--/9-----7--------12---10--9-------|
|-----------------------------------|
|-----------------------------------|

|---------------------------------|
|--12----10------8-----7---5------|
|---------------------------------|
|--9-----7-------5-----4---2------|
|---------------------------------|
|---------------------------------|


|----------------------|
|--8----7--------------|
|--------------7---9---|
|--5----4------7---9---|
|--------------5---7---|
|----------------------|

Head banging Riff                   X6
|-----------------------------------|
|-----------------------------------|
|----9-----9-----9-----9------------|
|----9-----9-----9-----9------------|
|----7-----7-----7-----7------------|
|--0---0-0---0-0---0-0---0-0-0-0-0--|


|-------------------------------|
|-------------------------------|
|----9---7----------------------|
|----9---7-----4----2-----------|
|----7---5-----4----2-----------|
|--------------2----0-----------|

This is repeated four times, two times with vocals and two times during the solo which I 
know how to play. Yet.


Chorus riff


|-----------------------------------------------------------|
|o----------------------------------------------------------|
|--5------5------5/7------------------5----5------4----4----|
|--5------5------5/7----2----2----5---5----5------4----4----|
|o-3------3------3/5----2----2----5---3----3------2----2----|
|-----------------------0----0----3-------------------------|


|-----------------------------------------------------------|
|----------------------------------------------------------o|
|--2------2------2/5------------------5----5------4----4----|
|--2------2------2/5----2----2----5---5----5------4----4----|
|--0------0------0/3----2----2----5---3----3------2----2---o|
|-----------------------0----0----3-------------------------|

ends on
|----------|
|----------|
|----------|
|----------|
|--77777~--|
|----------|





Comments


Popular Mors Principium Est tabs & chords
Cleansing Rain Tabs
Finality Tabs
Sinners Defeat Tabs
Sinners Defeat 2 Tabs
The Unborn Tabs


Song lyrics



↑ Back to top | Tablatures and chords are parodies/interpretations of the original songs. You may use it for private study, scholarship, research or language learning purposes only
© 2014 AZChords.com Contact us | Privacy policy | DMCA | Add/correct tabs | Request tabs | Top 50 tabs