» » »

Finality Tabs (ver.1)

Artists:  A B C D E F G H I J K L M N O P Q R S T U V W X Y Z # 

Finality Tabs (ver.1)

Mors Principium Est
Rating:
5/5 (2 votes)

Hard to play? Try these video lessons and learn fast.
                Mors Principium Est - Finality

the first mors principium est song i ever heard, and my favorite. not too hard, i do it 
downstroke, but i suppose alternate pickin works too. the main thing about this song as 
as difficulty goes is speed.

basically, any note played on the low E is palm muted, i'll let you know if not.
h - hammer on
p - pull off
/ - slide up
...that's pretty much all you need to know for this song.

intro/chorus: 2x
|----------------------------------------------------------------------|
|----------------------------------------------------------------------|
|----------------------------------------------------------------------|
|-----9------------9------------10------------7-----------9------------|
|---------10-----------10------------12-----------9-----------10---7---|
|-0-0---0----0-0-0---0----0-0-0----0----0-0-0---0---0-0-0---0----0-----|

|----------------------------------------------------------------------|
|----------------------------------------------------------------------|
|----------------------------------------------------------------------|
|-------------------------------7---4----------------------------------|
|-----10---7-------10---7-------------------9---6-------6---7---9------|
|-8-8----8---8-8-8----8---5-5-5---5---7-7-7---7---7-7-7---7---7--------|

verse harmony 1: 2x
|------------------------------------------------------------------------|
|------------------------------------------------------------------------|
|------------------------------------------------------------------------|
|-----9---10-----7-----7-----9---------9---10-----7---7-10---9h10p9------|
|-------------------------------------------------------------------12---|
|-0-0---0----0-0---0-0---0-0---0-0-0-0---0----0-0---0--------------------|

|------------------------------------------------------------------------|
|------------------------------------------------------------------------|
|------------------------------------------------------------------------|
|------------------------------------------------------------------------|
|-----10---12-----9-----9-----10---------10---12-----9---9-6---7---8-----|
|-8-8----8----8-8---8-8---8-8----8-8-8-8----8----8-8---8-----------------|

verse harmony 2: (for the retards, this is played at the same time as verse harmony 1 
also 2x)
|---------------------------------------------------------------------------|
|---------------------------------------------------------------------------|
|---------------------------------------------------------------------------|
|---------------------------------------------------------------------------|
|-----10---12-----9-----9-----10---------10---12-----9---9-12---10h12p10p9--|
|-0-0----0----0-0---0-0---0-0----0-0-0-0----0----0-0---0--------------------|

|------------------------------------------------------------------------|
|------------------------------------------------------------------------|
|------------------------------------------------------------------------|
|------------------------------------------------------------------------|
|-----7---9-----5-----5-----9---------7---9-----5---5--------------------|
|-8-8---8---8-8---8-8---8-8---8-8-8-8---8---8-8---8---7---8---11---------|

for this riff, if "pm......." indicates palm mutin
pre-chorus: 2x as well (noticin a trend?)
|-----------------------------------------------------------------|
|-----------------------------------------------------------------|
|-----------------------------------------------------------------|
|-----------------------------------------------------------------|
|-----------------------------------------------------------------|
|-0-0-0-0-0-0-0-0-0-0-0-0-0-0-0-0-0-0-0-7p0-0-8p0-0-3p0-0-5p0-2p0-|
  pm...................................     .     .     .

|-----------------------------------------------------------------|
|-----------------------------------------------------------------|
|-----------------------------------------------------------------|
|-------------------------------------------------------------8---|
|-------------------------------------------------------------8---|
|-0-0-0-0-0-0-0-0-0-0-0-0-0-0-0-0-0-0-0-3p0-0-5p0-0-2p0-0-3p0-6---|
  pm...................................     .     .     .

it out is right, i might be missin some of the different things they do, but as far as i 
this is all it is:

solo rythm 1: 2x
|-------------------------------------------------------------|
|-------------------------------------------------------------|
|-------------------------------------------------------------|
|-----------------------------------------------5----5----5/8-|
|---------7-------5h7---7h9---9p5---5h7---------5----5----5/8-|
|-0-0-0-0---0-0-0-----0-----0-----0-----0-0-0-0-3--0-3--0-3/6-|

|-----------------------------------------------------------|
|-----------------------------------------------------------|
|-----------------------------------------------------------|
|-----------------------------------------------5----7----8-|
|---------7-------5h7---7h9---9p5---5h7---------5----7----8-|
|-0-0-0-0---0-0-0-----0-----0-----0-----0-0-0-0-3----5----6-|

|-------------------------------------------------------------|
|-------------------------------------------------------------|
|-------------------------------------------------------------|
|-----------------------------------------------5----5----5/8-|
|---------7-------5h7---7h9---9p5---5h7---------5----5----5/8-|
|-0-0-0-0---0-0-0-----0-----0-----0-----0-0-0-0-3--0-3--0-3/6-|

|-----------------------------------------------------------|
|-----------------------------------------------------------|
|-----------------------------------------------------------|
|-----------------------------------------------8----7----5-|
|---------7-------5h7---7h9---9p5---5h7---------8----7----5-|
|-0-0-0-0---0-0-0-----0-----0-----0-----0-0-0-0-6----5----3-|

solo rythm 2: 2x
|----------------------|
|----------------------|
|----------------------|
|-10----------12-------|
|-10----------12-------|
|-8-----------10-------|

|-----------------------------------------------------------|
|-----------------------------------------------------------|
|-----------------------------------------------------------|
|-----------------------------------------------8----7----5-|
|---------7-------5h7---7h9---9p5---5h7---------8----7----5-|
|-0-0-0-0---0-0-0-----0-----0-----0-----0-0-0-0-6----5----3-|

|---------------------------------------------------|
|---------------------------------------------------|
|---------------------------------------------------|
|-10----------12----------9----------------13-------|
|-10----------12----------9----------------13-------|
|-8-----------10----------7----------------11-------|

and that's all the riffs, i'm pretty much through figurin out the solo, so once i do and 
get some time i'll post it up as well.

hope you guys enjoy!

-randy the metal maker.
            
Hard to play? Try these video lessons and learn fast. | Correct




comments powered by Disqus
↑ Back to top | Tablatures and chords are parodies/interpretations of the original songs. You may use it for private study, scholarship, research or language learning purposes only