>
 >
When Last I Spoke To Carol

When Last I Spoke To Carol Bass Tabs

Morrissey - When Last I Spoke To Carol chords, tabs, tablatures, lyrics

Guitar lessons | Add/correct | Request | Top 50 tabs Artists:  A B C D E F G H I J K L M N O P Q R S T U V W X Y Z 0-9

When Last I Spoke To Carol Bass Tabs – Morrissey

CD, Sheet music, Poster

Do you like When Last I Spoke To Carol? Share with your friends now
Bass TabsChordsUkulele
When Last I Spoke to Carol
Morrissey
Bass Tab
Bassist: Solomon Walker

128BPM, 4/4

Intro

|---------|-----------|---------|-----------|
|---------|-----------|---------|-----------|
|---------|-----------|---------|-----------|
|---------|------3-3--|---------|------3-3--|

Verse

|---------------|---------------|---------------|---------------|
|------5------5-|------5------5-|------3------3-|------3------3-|
|-3--6---3--6---|-3--6---3--6---|----5------5---|----5------5---|
|---------------|---------------|-6------6------|-6------6------|

|---------------|---------------|--------------|---------------|
|---------------|---------------|--------------|---------------|
|----3-6----3-6-|----3-6----3---|--------------|-------------1-|
|-4------4------|-4------4----4-|-1--1--1--1-2-|-3--1--3-1-3---|

|---------------|--------------|---------------|--------------|
|------5------5-|------5-6-5---|------3------3-|------3-5-3---|
|-3--6---3--6---|-3--6-------6-|----5------5---|----5-------5-|
|---------------|--------------|-6------6------|-6------------|

|---------------|--------------|-------------|---------------|
|---------------|--------3-----|-------------|---------------|
|----3-6----3-6-|----3-6---6-3-|-6-----6-----|-------------1-|
|-4------4------|-4------------|----6-----6--|-3--1--3-1-3---|

Break

|----------|-----------|----------|-----------|
|----------|-----------|----------|-----------|
|-3--------|-----------|----------|-----------|
|----------|------3-3s=|=8--------|------3-3s=|

|----------|-----------|----------|-----------|
|----------|-----------|----------|-----------|
|----------|-----------|----------|-----------|
|-8--------|------3-3s=|=8--------|------3-3--|

Verse

|---------------|---------------|---------------|---------------|
|------5------5-|------5------5-|------3------3-|------3------3-|
|-3--6---3--6---|-3--6---3--6---|----5------5---|----5------5---|
|---------------|---------------|-6------6------|-6------6------|

|---------------|---------------|--------------|---------------|
|---------------|---------------|--------------|---------------|
|----3-6----3-6-|----3-6----3---|--------------|-------------1-|
|-4------4------|-4------4----4-|-1--1--1--1-2-|-3--1--3-1-3---|

|---------------|--------------|---------------|--------------|
|------5------5-|------5-6-5---|------3------3-|------3-5-3---|
|-3--6---3--6---|-3--6-------6-|----5------5---|----5-------5-|
|---------------|--------------|-6------6------|-6------------|

|---------------|--------------|-------------|---------------|
|---------------|--------3-----|-------------|---------------|
|----3-6----3-6-|----3-6---6-3-|-6-----6-----|-------------1-|
|-4------4------|-4------------|----6-----6--|-3--1--3-1-3---|

Break

|----------|-----------|----------|------------|
|----------|-----------|----------|------------|
|-3--------|-----------|----------|------------|
|----------|------3-3s=|=8--------|------1-3-1-|

Bridge

|---------------|----------------|----------------|----------------|
|---------------|----------------|-------------3--|-------------3--|
|----5------5-5-|-----5-5-----1--|-3-3-5-5-6-6----|-3-3-5-5-6-6----|
|-3-----3-3-----|-3-3-----3-3----|----------------|----------------|

|----------------|-------------|-----------------|-------------|
|-5--5-3-5-5-5-5-|-5--3--------|-------------3-3-|----------5--|
|----------------|-------6--5--|-----3-3-6-6-----|----5--8-----|
|----------------|-------------|-4-4-------------|-6-----------|

|----------|-----------|----------|--------------|
|----------|-----------|----------|--------------|
|----------|-----------|----------|----------1-1-|
|-8--------|------3-3s=|=8--------|----3-3-3-----|

Verse

|---------------|---------------|---------------|---------------|
|------5------5-|------5------5-|------3------3-|------3------3-|
|-3--6---3--6---|-3--6---3--6---|----5------5---|----5------5---|
|---------------|---------------|-6------6------|-6------6------|

|---------------|---------------|--------------|---------------|
|---------------|---------------|--------------|---------------|
|----3-6----3-6-|----3-6--------|--------------|-------------1-|
|-4------4------|-4------4--4\--|-1--1--1--1-2-|-3--1--3-1-3---|

|---------------|--------------|---------------|--------------|
|------5------5-|------5-6-5---|------3------3-|------3-5-3---|
|-3--6---3--6---|-3--6-------6-|----5---1--5---|----5-------5-|
|---------------|--------------|-6-------------|-6------------|

|---------------|--------------|-------------|---------------|
|---------------|--------3-----|-------------|-5--7--9--/12--|
|----3-6----3-6-|----3-6---6-3-|-6-----6--8--|---------------|
|-4------4------|-4------------|----6--------|---------------|

Break

|-----------|-----------|----------|-------------|
|-10--------|-----------|----------|-------------|
|-----------|-----------|----------|-------------|
|-----------|------3-3s=|=8--------|------3-3-3s=|

|----------|------------|----------|---------------|
|----------|------------|----------|---------------|
|----------|------------|----------|---------------|
|-8--------|------3-3-3s|=8--------|---8s3-3-3-3-3-|

Ending

|-------------|--------------|-------------|--------------|
|-------------|--------------|-------------|--------------|
|-3-1-------1-|-3-1--------1-|-3-1-------1-|-3-1--------1-|
|-----3-1-3---|-----1-3--3---|-----3-1-3---|-----1-3--3---|

|-------------|--------------|-------------|--------------|
|-------------|--------------|-------------|--------------|
|-3-1-------1-|-3-1--------1-|-3-1-------1-|-3-1--------1-|
|-----3-1-3---|-----1-3--3---|-----3-1-3---|-----1-3--3---|

|-------------|----------------|-------------|----------------|
|-------------|----------------|-------------|----------------|
|-3---3s8---8-|-3---3-10-8-6-5-|-3---3s8---8-|-3---3-10-8-6-5-|
|---3-----8---|---3------------|---3-----8---|---3------------|

|-------------|----------------|-------------|----------------|
|-------------|----------------|-------------|----------------|
|-3---3s8---8-|-3---3-10-8-6-5-|-3---3s8---8-|-3---3-10-8-6-5-|
|---3-----8---|---3------------|---3-----8---|---3------------|

|----------|---------|---------|---------*|
|----------|---------|---------|---------*|
|-3--------|---------|---------|---------*|
|----------|---------|---------|---------*|





Comments


Popular Morrissey tabs & chords
Girl Least Likely To Bass Tabs
Seasick Yet Still Docked Bass Tabs
All The Lazy Dykes Chords
I'll Never Be Anybody's Hero Now 1 Chords
When Last I Spoke To Carol Chords
Last Of The Famous International Tabs
Angel Angel Down We Go Together Ukulele
Life Is A Pigsty Ukulele
Speedway Ukulele
We Hate It When Our Friends Become Sucessful Ukulele


Song lyrics



↑ Back to top | Tablatures and chords are parodies/interpretations of the original songs. You may use it for private study, scholarship, research or language learning purposes only
© 2014 AZChords.com Contact us | Privacy policy | DMCA | Add/correct tabs | Request tabs | Top 50 tabs