» » »

Well Let You Know Bass tabs (ver.1)

Artists:  A B C D E F G H I J K L M N O P Q R S T U V W X Y Z # 

Well Let You Know Bass tabs (ver.1)

Morrissey
Rating:
0/5 (0 votes)

Tabs too difficult? Try these video lessons and learn fast.
                We'll Let You Know
Morrissey

Beginning
G |--------------------------------|
D |--------------------------------|
A |-7------7--------7---7---7---7--|
E |--------------------------------|

Main Riff
G |--------------------------------|--------------------------------|
D |-----------4-5-7-8--------------|-------------7-4----------------|
A |-5------------------------------|-5---------------5-------4------|
E |--------------------------------|--------------------------------|

G |--------------------------------|--------------------------------|
D |--------------------------------|-------------4------------------|
A |-2------------------------------|-2-------------3----------------|
E |-----------------0--------------|-----------------0-----------0-2|

G |--------------------------------|--------------------------------|
D |--------------------------------|-------------------7-5-4--------|
A |--------------------------------|-------------------------7-5-4-2|
E |-3---------------3-----------2-3|-5-----------5------------------|

[01:32] Main Riff with alt. ending
G |--------------------------------|--------------------------------|
D |--------------------------------|-------------7-----7---7--------|
A |--------------------------------|---------------------7----------|
E |-3---------------3-----------2-3|-5------------------------------|

[01:57] Main Riff with alt. beginning
G |--------------------------------|--------------------------------|
D |-------------2-4-5--------------|-------------7-4----------------|
A |-5------------------------------|-5---------------5-------4------|
E |--------------------------------|--------------------------------|

[03:12] Main Riff with alt. ending
G |--------------------------------|--------------------------------|
D |-----------------5--------------|-7-----------------7-5-4--------|
A |--------------------------------|-------------------------7-5-4-2|
E |-3------------------------------|--------------------------------|

[03:36] Other Riff
G |--------------------------------|--------------------------------|
D |-----------4-5-7-8--------------|-------------7-4----------------|
A |-5------------------------------|-5---------------5-------4------|
E |--------------------------------|--------------------------------|

G |------4------2------------------|-------4-----2------------------|
D |-----------4-----2----2-4-------|-----------4-----2----2-4-------|
A |-2--------------------------0---|-2--------------------------0---|
E |--------------------------------|--------------------------------|

G |--------------------------------|--------------------------------|
D |--------------------------------|-------------------7-5-4--------|
A |--------------------------------|-------------------------7-5-4-2|
E |-3---------------3-----------2-3|-5-----------5------------------|

Outro
G |--------------------------------|--------------------------------|
D |-----2-----------------------2--|-----2-----------------------2--|
A |-------2-------------2---3-3---3|-------2---------5-5-3-2-3-3---3|
E |-0-0-----0-0-2-3-3-3---3--------|-0-0-----0-0-2-3----------------|

Order:
[00:39] Beginning
[00:43] Main Riff 2x
[01:32] Main Riff (Alt. Ending)
[01:57] Main Riff (Alt. Beginning)
[02:22] Main Riff 2x
[03:12] Main Riff (Alt. Ending again)
[03:36] Other Riff 2x
[04:21] Hit an A few times
[04:25] Outro 4x
 
            
Tabs too difficult? Try these video lessons and learn fast.




comments powered by Disqus
↑ Back to top | Tablatures and chords are parodies/interpretations of the original songs. You may use it for private study, scholarship, research or language learning purposes only