» » »

Edges Are No Longer Parallel Bass tabs (ver.1)

Artists:  A B C D E F G H I J K L M N O P Q R S T U V W X Y Z # 

Edges Are No Longer Parallel Bass tabs (ver.1)

Morrissey
Rating:
0/5 (0 votes)

Hard to play? Try these video lessons and learn fast.
                Morrissey

Part A
F# |--------------------------------|--------------------------------|
C# |--------------------------------|--------------------------------|
G# |-2~~----------------------------|--------------------------------|
D# |--------------------------------|-3~~----------------------------|

F# |--------------------------------|--------------------------------|
C# |--------------------------------|--------------------------------|
G# |--------------------------------|--------------------------------|
D# |-4~~----------------------------|-3~~-------------------------3--|

F# |--------------------------------|--------------------------------|
C# |--------------------------------|--------------------------------|
G# |-2~~---------------------4------|--------------------------------|
D# |--------------------------------|-3~~----------------------------|

F# |--------------------------------|--------------------------------|
C# |--------------------------------|--------------------------------|
G# |-------------------------2------|--------------------------------|
D# |-4~~----------------------------|-3~~-------------3~~------------|

Bridge
F# |--------------------------------|--------------------------------|
C# |--------------------------------|--------------------------------|
G# |--------------------------------|\9~~-------------2~~------------|
D# |-4~~-------------2~~------------|--------------------------------|

F# |--------------------------------|--------------------------------|
C# |--------------------------------|-----------------2^4\5~~--------|
G# |--------------------------------|\9~~----------------------------|
D# |-4~~-------------2~~------------|--------------------------------|

F# |------------------4-------------|
C# |------------------------5~~-----|
G# |--------------------------------|
D# |--------------------------------|

Part B
F# |--------------------------------|--------------------------------|
C# |--------------------------------|-----------------5--------------|
G# |-2-----2-2-------2-----2-----2-4|-------------------------4---2--|
D# |---------------2----------------|-3-----3-------3----------------|

F# |--------------------\4----------|--------------------------------|
C# |---------------6-----------5~~--|----------------(5)-------------|
G# |--------------------------------|---(2)(5)---------(5)x--(5)-----|
D# |-4-----4-----4------------------|(3)-----------------------------|

Part C
F# |--------------------------------|--------------------------------|
C# |-------------6------------------|-----------4-----2-----4----5\--|
G# |--------6-----------------------|-------3------------------------|
D# |-4---------------2------2----2--|-2-4----------------------------|

F# |------------------|
C# |-9^11-12--14\-----|
G# |------------------|
D# |------------------|

Part D
F# |--------------------------------|--------------------------------|
C# |--------------------------------|--------------------------------|
G# |-2------2---2----2---2---2-4-2--|-----------------2-------4---2--|
D# |-----(2)--2---------------------|-3~~----------------------------|

F# |--------------------------------|----4---6---7-------------------|
C# |-------------------6--8--10-----|----------------(5)-------------|
G# |--------------------------------|--------------------------------|
D# |-4~~-------------4--------------|-3------------------------------|

F# |--------------------------------|--------------------------------|
C# |--------------------------------|--------------------------------|
G# |-2~~-----2---2-2--2----2----2-2-|-----------------2-4-2----------|
D# |--------------------------------|-3------3---3-3--------3--(3-3)-|

F# |--------------------------------|--------------------------------|
C# |--------------------------------|--------------------------------|
G# |--------------------------------|-------(4)--5-------------------|
D# |-4~~-------0-0-2-4~~------------|-3~~-------------3----(3)-(3)(3)|

Boom
F# |--------------------------------|--------------------------------|
C# |--------------------------------|--------------------------------|
G# |-2~~----------------------------|--------------------------------|
D# |--------------------------------|--------------------4----3------|

Encore A
F# |--------------------------------|--------------------------------|
C# |--------------------------------|--------------------------------|
G# |-2-----2-----2---------2-----2--|-------2-----2\-----------------|
D# |---2-4-----2---2-0-2-3-----2---2|-0-2-3-----2-----4--4----3------|

Encore B
F# |--------------------------------|--------------------------------|
C# |--------------------------------|--------------------------------| 
G# |-2----\---14-----2---\---14-----|-2---\---14------11------10-----|     
D# |--------------------------------|--------------------------------|     
 
    /\=Strum real quick and slide down your neck and make a lot of noise!
            
Hard to play? Try these video lessons and learn fast. | Correct




comments powered by Disqus
↑ Back to top | Tablatures and chords are parodies/interpretations of the original songs. You may use it for private study, scholarship, research or language learning purposes only