» » »

Southpaw Tabs (ver.1)

Artists:  A B C D E F G H I J K L M N O P Q R S T U V W X Y Z # 

Southpaw Tabs (ver.1)

Morrissey
Rating:
0/5 (0 votes)

Tabs too difficult? Try these video lessons and learn fast.
                Morrissey
 
Main Line
G |--------------------------------|
D |--------------------------------|
A |---------------------------9----|  + An Ending
E |-2-----2-2-----2-2----\9--------|

Endings A,B,C and D
G |--------------------------------|  |--------------------------------|
D |--------------------------------|  |--------------------------------|
A |-5-----5-5-----5-7---/11\-------|  |-0-5----------------------------|
E |--------------------------------|  |---------------0~~~-------------|

G |--------------------------------|  |--------------------------------|
D |--------------------------------|  |--------------------------------|
A |-0-5----------------------------|  |-0-5-----------7~~~-------------|
E |---------------4~~~-------------|  |--------------------------------|

Verse
G |--------------------------------|--------------------------------|
D |--------------------------------|--------------------------------|
A |-2-----2-2-----7---7------------|-0-----0-0-----0---0---0-0------|
E |-----------------------7\0------|--------------------------------|

G |--------------------------------|--------------------------------|
D |--------------------------------|--------------------------------|
A |-2-----2-2---------------7------|-0-----0-0-----0---0---0-0------|
E |---------------0---4-\-7--------|--------------------------------|

Bridge
G |------------------------\11-----|--------------------------------|
D |-------------2-4~~--------------|-0---0-0-0-------2---2-2-2-2----|
A |---------0^2--------------------|--------------------------------|
E |-2-----2------------------------|--------------------------------|

Outro
G |--------------------------------|--------------------------------|
D |--------------------------------|--------------------------------|
A |-4-------6-------7-------9------|-------4---------------7----6---|
E |------------------------------7-|-5---------5-----7--------------|

Order:
[00:34] Main Line 4x (With Endings A,B,B,C)
[00:02] Verse
[01:31] Main Line 6x (With Endings D,B,A,B,C,B)
[02:13] Verse
[02:41] Bridge 2x (Again...and you ran...)
[02:55] Verse (Oh, you ran back to Ma...)
[03:23] Outro until end (And now, there is something that you should know...)
            
Tabs too difficult? Try these video lessons and learn fast.




comments powered by Disqus
↑ Back to top | Tablatures and chords are parodies/interpretations of the original songs. You may use it for private study, scholarship, research or language learning purposes only