>
 >
Let Me Kiss You

Let Me Kiss You Guitar Tabs

Morrissey - Let Me Kiss You chords, tabs, tablatures, lyrics

Guitar lessons | Add/correct | Request | Top 50 tabs Artists:  A B C D E F G H I J K L M N O P Q R S T U V W X Y Z 0-9

Let Me Kiss You Guitar Tabs – Morrissey

CD, Sheet music, Poster

Do you like Let Me Kiss You? Share with your friends now
ChordsChords v2Chords v3TabsTabs v2Ukulele
                         bruitage------                        
     W                   W                   W                 
E||-------------------|-------------------|-------------------|
B||-------------------|-------------------|-------------------|
G||-------------------|-------------------|-------------------|
D||-------------------|-------------------|-------------------|
A||-------------------|-------------------|-------------------|
D||-------------------|-------------------|-------------------|


  couplet 1                                                  
  Am                  Em7                  D7sus2            
  ^                        ^               ^                 
  W                   Q    H.              W                 
--0----------------|--0----0------------|--0----------------|
--1----------------|--3----3------------|--1----------------|
--2----------------|--0----0------------|--2----------------|
--2----------------|--2----2------------|--0----------------|
--0----------------|--2----2------------|-------------------|
-------------------|--------------------|-------------------|


  Am                  Em                  Am                
  ^                   v                   ^                 
  W                   W                   W                 
--0----------------|--0----------------|--0----------------|
--1----------------|--0----------------|--1----------------|
--2----------------|--0----------------|--2----------------|
--2----------------|--2----------------|--2----------------|
--0----------------|--2----------------|--0----------------|
-------------------|-------------------|-------------------|


  F        G           Am       G           C                 
  ^        ^           ^        ^           ^                 
  H        H           H        H           W                 
--1--------3--------|--0--------3--------|--0----------------|
--1--------3--------|--1--------3--------|--1----------------|
--2--------4--------|--2--------4--------|--0----------------|
--3--------5--------|--2--------5--------|--2----------------|
--3--------5--------|--0--------5--------|--3----------------|
--------------------|--------------------|-------------------|


  E7                  Am       G           F                 
  ^                   ^        ^           ^                 
  W                   H        H           W                 
--0----------------|--0--------3--------|--1----------------|
--3----------------|--1--------3--------|--1----------------|
--1----------------|--2--------4--------|--2----------------|
--2----------------|--2--------5--------|--3----------------|
--2----------------|--0--------5--------|--3----------------|
-------------------|--------------------|-------------------|


  Dsus2                         C        G         
                                ^        ^         
  E     E  E  E  E  E  E  E     H        H         
-----------0-----L-----0--L--|--0--------3--------|
--------------3--L--3-----3--|--1--------3--------|
--------2--------L--------L--|--0--------4--------|
-----------------------------|--2--------5--------|
-----------------------------|--3--------5--------|
--0--------------L--------L--|--------------------|


  Dsus2                         C        E7/B                 
                                ^                             
  E     E  E  E  E  E  E  E     Q    E.  S    S S S S S S E   
-----------0-----L-----0--L--|--0----L---L----4---L-0-L---L--|
--------------3--L--3-----3--|--1----L---L------3---L-L-3-L--|
--------2--------L--------L--|--0----L---4------L-4-----L-4--|
-----------------------------|--2----L-----------------------|
-----------------------------|--3----L-----------------------|
--0--------------L--------L--|-------------------------------|


  solo 1                                                                 
  Am                Em                   F             G                 
  S      S E  E  E  S  S S S S S  S S    S S S S E  E  S S S S S S  S S  
--------------------------------------|---------------------------------|
-----------1--0------------0-L-1p-0---|------1---0-----------0-L-1p-0---|
---------2-------0--L----0----------0-|----2---2----0--L---0----------0-|
-----------------------2--------------|--3---------------0--------------|
--0-----------------------------------|---------------------------------|
--------------------------------------|---------------------------------|


  Em              Am                F                  G       G/Ab        
  E  E  S  S  S S S  S S S S E.     S S S S S  S  S S  S S S S S    S S S  
---------------------------------|----------------------------------------|
--------0h-1p-0--------1-0-L-----|------1---0h-1p-0--------3----------3---|
----------------0----2-------2---|----2---2---------2----4---4------4---4-|
-----2---------------------------|--3-----------------/5-------6----------|
------------------0--------------|----------------------------------------|
--2------------------------------|----------------------------------------|


  pont piano                                               
  Am                              Em                       
  Q          E  E  Q    E  S S    E  E  E  E  E  E  E  E   
-------------------------------|--------------------------|
-------------------1----1------|--0-----0-----0-----0-----|
-------------------2----2--0---|--0-----0-----0-----0-----|
-------------------2----2----3-|--2--2--2--2--2--2--2-----|
----------------3--0----0------|--2--2--2--2--2--2--2--0--|
-------------------------------|-----2-----2-----2-----0--|


                                                             couplet 2         
  D                           F                              Am                
                                                             ^                 
  E  E  E  E  S E  S S E.     E  S S S E.  S S S S S  E.     W                 
--2-----2-----3-2--0-L-----|---------------5-----8-L-13---|--0----------------|
--3-----3-----3-3--3-L-3---|-----1-----1-----6------------|--1----------------|
--2--2--2--2--2-2--2-L-2---|-------2-------5---5-5-L-14---|--2----------------|
--0--0--0--0--0-0--0-L-0---|--3------3--------------------|--2----------------|
---------------------------|------------------------------|--0----------------|
---------------------------|------------------------------|-------------------|


  Em                     Dm                           
  ^                      ^                            
  Q    E  E  H           Q    S S S S S S S S S S E   
----------0--L--------|--1----1-----1-L-----1-L------|
--0-------0--L--------|--3------3-------3-------3----|
--0-------0--L--------|--2--------2-------2-------2--|
--2-------------------|--0---------------------------|
--2----2--------------|------------------------------|
--2----2--------------|------------------------------|


  Am                           (Em)                        
  E  S S S E.  S S E  E  E     S    S E  S  S E  H         
--0------------L-0-------L--|-----------------------------|
-----1-0-L-1---L-L-1--0-----|-----------------------------|
-------------------------2--|--0------L--0-------L--------|
----------------------------|--0h---2-L--0h-2-L--L--------|
--0----L-L-0---L---L--0--L--|-----------------------------|
----------------------------|-----------------------------|


  (Am)                   F         G            Am        G          
                         ^    ^    ^    ^       ^    ^    ^    ^     
  Q    E  E  H           Q    Q    Q    Q       Q    Q    Q    Q     
--7----8--5--L--------|-------1----3----3----|--0----0----3----3----|
--5----5--5--L--------|--1----1----3----3----|--1----1----3----3----|
----------------------|--2----2----4----4----|--2----2----4----4----|
----------------------|--3----3----5----5----|--2----2----5----5----|
----------------------|--3----3----5----5----|--0----0----5----5----|
----------------------|----------------------|----------------------|


  refrain 2                                                  
  C                   E7                  Am       G         
  ^                   ^                   ^        ^         
  W                   W                   H        H         
--0----------------|--0----------------|--0--------3--------|
--1----------------|--3----------------|--1--------3--------|
--0----------------|--1----------------|--2--------4--------|
--2----------------|--2----------------|--2--------5--------|
--3----------------|--2----------------|--0--------5--------|
-------------------|-------------------|--------------------|


  F                   Dsus2                         C        G         
  ^                                                 ^        ^         
  W                   E     E  E  E  E  E  E  E     H        H         
--1----------------|-----------0-----L-----0--L--|--0--------3--------|
--1----------------|--------------3--L--3-----3--|--1--------3--------|
--2----------------|--------2--------L--------L--|--0--------4--------|
--3----------------|-----------------------------|--2--------5--------|
--3----------------|-----------------------------|--3--------5--------|
-------------------|--0--------------L--------L--|--------------------|


  Dsus2                         C        E7/B                 
                                ^                             
  E     E  E  E  E  E  E  E     Q    E.  S    S S S S S S E   
-----------0-----L-----0--L--|--0----L---L----4---L-0-L---L--|
--------------3--L--3-----3--|--1----L---L------3---L-L-3-L--|
--------2--------L--------L--|--0----L---4------L-4-----L-4--|
-----------------------------|--2----L-----------------------|
-----------------------------|--3----L-----------------------|
--0--------------L--------L--|-------------------------------|


  solo 2                                                                 
  Am                Em                   F             G                 
  S      S E  E  E  S  S S S S S  S S    S S S S E  E  S S S S S S  S S  
--------------------------------------|---------------------------------|
-----------1--0------------0-L-1p-0---|------1---0-----------0-L-1p-0---|
---------2-------0--L----0----------0-|----2---2----0--L---0----------0-|
-----------------------2--------------|--3---------------0--------------|
--0-----------------------------------|---------------------------------|
--------------------------------------|---------------------------------|


  Em              Am                F                  G       G/Ab        
  E  E  S  S  S S S  S S S S E.     S S S S S  S  S S  S S S S S    S S S  
---------------------------------|----------------------------------------|
--------0h-1p-0--------1-0-L-----|------1---0h-1p-0--------3----------3---|
----------------0----2-------2---|----2---2---------2----4---4------4---4-|
-----2---------------------------|--3-----------------/5-------6----------|
------------------0--------------|----------------------------------------|
--2------------------------------|----------------------------------------|


  refrain 3 (avec synthé)                                           
  C                          E7                  Am       G         
  ^                          ^                   ^        ^         
  W                          W                   H        H         
--0-----------------------|--0----------------|--0--------3--------|
--1-----------------------|--3----------------|--1--------3--------|
--0-----------------------|--1----------------|--2--------4--------|
--2-----------------------|--2----------------|--2--------5--------|
--3-----------------------|--2----------------|--0--------5--------|
--------------------------|-------------------|--------------------|


  F                   Dsus2                         C        G         
  ^                                                 ^        ^         
  W                   E     E  E  E  E  E  E  E     H        H         
--1----------------|-----------0-----L-----0--L--|--0--------3--------|
--1----------------|--------------3--L--3-----3--|--1--------3--------|
--2----------------|--------2--------L--------L--|--0--------4--------|
--3----------------|-----------------------------|--2--------5--------|
--3----------------|-----------------------------|--3--------5--------|
-------------------|--0--------------L--------L--|--------------------|


  Dsus2                         C        E7/B                 
                                ^                             
  E     E  E  E  E  E  E  E     Q    E.  S    S S S S S S E   
-----------0-----L-----0--L--|--0----L---L----4---L-0-L---L--|
--------------3--L--3-----3--|--1----L---L------3---L-L-3-L--|
--------2--------L--------L--|--0----L---4------L-4-----L-4--|
-----------------------------|--2----L-----------------------|
-----------------------------|--3----L-----------------------|
--0--------------L--------L--|-------------------------------|


  solo 3                                                                 
  Am                Em                   F             G                 
  S      S E  E  E  S  S S S S S  S S    S S S S E  E  S S S S S S  S S  
--------------------------------------|---------------------------------|
-----------1--0------------0-L-1p-0---|------1---0-----------0-L-1p-0---|
---------2-------0--L----0----------0-|----2---2----0--L---0----------0-|
-----------------------2--------------|--3---------------0--------------|
--0-----------------------------------|---------------------------------|
--------------------------------------|---------------------------------|


  Em              Am                F                  G       G/Ab        
  E  E  S  S  S S S  S S S S E.     S S S S S  S  S S  S S S S S    S S S  
---------------------------------|----------------------------------------|
--------0h-1p-0--------1-0-L-----|------1---0h-1p-0--------3----------3---|
----------------0----2-------2---|----2---2---------2----4---4------4---4-|
-----2---------------------------|--3-----------------/5-------6----------|
------------------0--------------|----------------------------------------|
--2------------------------------|----------------------------------------|


  solo 4                                                                 
  Am                Em                   F             G                 
  S      S E  E  E  S  S S S S S  S S    S S S S E  E  S S S S S S  S S  
--------------------------------------|---------------------------------|
-----------1--0------------0-L-1p-0---|------1---0-----------0-L-1p-0---|
---------2-------0--L----0----------0-|----2---2----0--L---0----------0-|
-----------------------2--------------|--3---------------0--------------|
--0-----------------------------------|---------------------------------|
--------------------------------------|---------------------------------|


  Em              Am                F                  G       G/Ab        
  E  E  S  S  S S S  S S S S E.     S S S S S  S  S S  S S S S S    S S S  
---------------------------------|----------------------------------------|
--------0h-1p-0--------1-0-L-----|------1---0h-1p-0--------3----------3---|
----------------0----2-------2---|----2---2---------2----4---4------4---4-|
-----2---------------------------|--3-----------------/5-------6----------|
------------------0--------------|----------------------------------------|
--2------------------------------|----------------------------------------|


  solo 5                                                                 
  Am                Em                   F             G                 
  S      S E  E  E  S  S S S S S  S S    S S S S E  E  S S S S S S  S S  
--------------------------------------|---------------------------------|
-----------1--0------------0-L-1p-0---|------1---0-----------0-L-1p-0---|
---------2-------0--L----0----------0-|----2---2----0--L---0----------0-|
-----------------------2--------------|--3---------------0--------------|
--0-----------------------------------|---------------------------------|
--------------------------------------|---------------------------------|


  Em              Am                F                  G       G/Ab        
  E  E  S  S  S S S  S S S S E.     S S S S S  S  S S  S S S S S    S S S  
---------------------------------|----------------------------------------|
--------0h-1p-0--------1-0-L-----|------1---0h-1p-0--------3----------3---|
----------------0----2-------2---|----2---2---------2----4---4------4---4-|
-----2---------------------------|--3-----------------/5-------6----------|
------------------0--------------|----------------------------------------|
--2------------------------------|----------------------------------------|


  solo 6                                                                 
  Am                Em                   F             G                 
  S      S E  E  E  S  S S S S S  S S    S S S S E  E  S S S S S S  S S  
--------------------------------------|---------------------------------|
-----------1--0------------0-L-1p-0---|------1---0-----------0-L-1p-0---|
---------2-------0--L----0----------0-|----2---2----0--L---0----------0-|
-----------------------2--------------|--3---------------0--------------|
--0-----------------------------------|---------------------------------|
--------------------------------------|---------------------------------|


  fade out...                              
  Em                       Am              
  E           E  S  S  S S S  S S S S E.   
------------------------------------------|
-----------------0h-1p-0--------1-0-L-----|
-------------------------0----2-------2---|
--------------2---------------------------|
---------------------------0--------------|
--2---------------------------------------|


  F                  G       G/Ab          Am                 
  S S S S S  S  S S  S S S S S    S S S    W                  
----------------------------------------|--0----------------||
------1---0h-1p-0--------3----------3---|--1----------------||
----2---2---------2----4---4------4---4-|--2----------------||
--3-----------------/5-------6----------|--2----------------||
----------------------------------------|--0----------------||
----------------------------------------|-------------------||




Duration Legend
---------------
W - whole
H - half
Q - quarter
E - 8th
S - 16th
T - 32nd
X - 64th
. - note dotted
|-n-|  - n-tuplets


Tablature Legend
----------------
L - tied note
x - dead note
g - grace note
(n) - ghost note
> - accentuded note
NH - natural harmonic
AH - artificial harmonic
TH - tapped harmonic
SH - semi harmonic
PH - pitch harmonic
h - hammer on
p - pull off
b - bend
br - bendRelease
pb - preBend
pbr - preBendRelease
brb - bendReleaseBend
\n/ - tremolo bar dip
\n - tremolo bar dive
-/n - tremolo bar Release up
/n\ - tremolo bar inverted dip
/n - tremolo bar return
-\n - tremolo bar Release down
S - shift slide
s - legato slide
/ -  slide into from below or out of upwards
\ -  slide into from above or out of downwards
~ - vibrato
W - wide vibrato
tr - trill
TP - tremolo picking
T - tapping
S - slap
P - pop
< - fade in
^ - brush up
v - brush down





Comments


Popular Morrissey tabs & chords
Dial A Cliche Bass Tabs
Disappointed Live Bass Tabs
Our Frank Bass Tabs
All You Need Is Me Chords
Interesting Drug Chords
Interlude Chords
We´Ll Let You Know Chords
Will Never Merry Chords
More You Ignore Me Tabs
Irish Blood English Heart Ukulele


Song lyrics



↑ Back to top | Tablatures and chords are parodies/interpretations of the original songs. You may use it for private study, scholarship, research or language learning purposes only
© 2014 AZChords.com Contact us | Privacy policy | DMCA | Add/correct tabs | Request tabs | Top 50 tabs