» » »

Morrissey, King Leer Tabs (ver.1)

Artists:  A B C D E F G H I J K L M N O P Q R S T U V W X Y Z # 

King Leer Tabs (ver.1)

Morrissey Tabs
 Rating:
4/5 (4 votes)
King Leer lessons Tabs too difficult? Try these video lessons and learn fast
1
                (Live)
King Leer (Live)
Morrissey

Intro
E |---88-77-55-3------88-77-55-3---------------------------------
B |-------------------------------66-55-33-1----66-55-33-1-------
G |--------------------------------------------------------------
D |--------------------------------------------------------------
A |--------------------------------------------------------------
E |-3/8------------3/8--------------------------1/5--------------

E |---88-77-55-3------88-77-55-3---------------------------------
B |-------------------------------66-55-33-1----66-55-33-1-------
G |--------------------------------------------------------------
D |--------------------------------------------------------------
A |--------------------------------------------------------------
E |-------------3/8--------------------------1/5-----------------

Verse
  |                   |
E |----5-8-7---8-8-/--12---8-8-8--5-----------5-8-7--3-3-3--2-1--
B |--6----------8-----12----8-8----5-5h6-5---6--------------4-3--
G |---------------------------------------6p5--------------------
D |--------------------------------------------------------------
A |--------------------------------------------------------------
E |--------------------------------------------------------------

E |-------------------5-------------3-3-3--5-3-------------------
B |-3/5-5-5-5h6p5------5-5h6---------5-5-------5-3---------------
G |--------------6p5---------6p5------------------5--------------
D |--------------------------------------------------------------
A |--------------------------------------------------------------
E |--------------------------------------------------------------

E |-----88-77-55-3-----88-77-55-3--------------------------------
B |--------------------------------66-55-33-1----66-55-33-1------
G |--------------------------------------------------------------
D |--------------------------------------------------------------
A |--------------------------------------------------------------
E |----------------3/8------------------------1/5----------------

E |---88-77-55-3------88-77-55-3---------------------------------
B |-------------------------------66-55-33-1----66-55-33-1-------
G |--------------------------------------------------------------
D |--------------------------------------------------------------
A |--------------------------------------------------------------
E |-------------3/8--------------------------1/5-----------------

Verse
  |                   |
E |----5-8-7---8-8-/--12---8-8-8--5-----------5-8-7--3-3-3--2-1--
B |--6----------8-----12----8-8----5-5h6-5---6--------------4-3--
G |---------------------------------------6p5--------------------
D |--------------------------------------------------------------
A |--------------------------------------------------------------
E |--------------------------------------------------------------

E |-------------------5-------------3-3-3--5-3-------------------
B |-3/5-5-5-5h6p5-------5-5h6--------5-5-------5-3---------------
G |--------------6p5---------6p5------------------5--------------
D |--------------------------------------------------------------
A |--------------------------------------------------------------
E |--------------------------------------------------------------

E |--88-77-55-3--88-77-55-3----------5-5--3--8--5-5--------------
B |----------------------------------5-5--3--8--5-5--------------
G |----------------------------------6-6--4--9--6-6--------------
D |----------------------------------7-7--5--10-7-7--------------
A |--------------------------------------------------------------
E |--------------------------------------------------------------

Final Verse
  |                   |
E |----5-8-7---8-8-/--12---8-8-8--5-----------5-8-7--3-3-3--2-1--
B |--6----------8-----12----8-8----5-5h6-5---6--------------4-3--
G |---------------------------------------6p5--------------------
D |--------------------------------------------------------------
A |--------------------------------------------------------------
E |--------------------------------------------------------------

E |-------------------5-------------3-3-3--5-3-------------------
B |-3/5-5-5-5h6p5-------5-5h6--------5-5-------5-3---------------
G |--------------6p5---------6p5------------------5--------------
D |--------------------------------------------------------------
A |--------------------------------------------------------------
E |--------------------------------------------------------------

E |-----88-77-55-3-----88-77-55-3--------------------------------
B |--------------------------------66-55-33-1----66-55-33-1------
G |--------------------------------------------------------------
D |--------------------------------------------------------------
A |--------------------------------------------------------------
E |----------------3/8------------------------1/5----------------

E |---88-77-55-3------7--8---
B |-------------------7--8---
G |-------------------8--9---
D |-------------------9--10--
A |--------------------------
E |--------------------------
            
Submit corrections

comments powered by Disqus
↑ Back to top | Morrissey Tabs for King Leer. Lyrics for acoustic guitar and electric guitar. 1 Tablatures and chords are parodies/interpretations of the original songs. You may use it for private study, scholarship, research or language learning purposes only