» » »

Morrissey, Irish Blood Tabs (ver.1)

Artists:  A B C D E F G H I J K L M N O P Q R S T U V W X Y Z # 

Irish Blood Tabs (ver.1)

Morrissey Tabs
Rating:
0/5 (0 votes)
Irish Blood lessons Tabs too difficult? Try these video lessons and learn fast
                A Modern sounding song...it's nice. i guess.
intro/verse thing i really won't tab out how many times there played,
but you'll get the idea.Use a delay pedal.

E)-------------------------------------------
B)-------------------------------------------
G)5-5-5-5-5-5-5-5-5-5-5-4-5-4-5-4-5-4-5-4-5-5
D)7-7-5-5-7-7-5-5-7-7-5-5-5-5-5-3-3-3-3-3-3-3
A)0-0-0-0-0-0-0-0-0-0-0-0-0-0-0-0-0-0-0-0-0-0
E)-------------------------------------------

Chorus:                         and then.....

E)-----------------------------------------------------
B)-----------------------------------------------------
G)------------------------------12-12-11-11-10-10--9--9
D)3-3-3-3-3-3-3-3-3-3-3-3-3-3-3--x--x--x--x--x--x--x--x
A)3-3-3-3-3-3-3-3-3-3-3-3-3-3-3-10-10--9--9--8--8--7--7
E)1-1-1-1-1-1-1-1-1-1-1-1-1-1-1------------------------

Well that's all i remember...sorry if it sucks.
            
Submit corrections

comments powered by Disqus
↑ Back to top | Morrissey Tabs for Irish Blood. Lyrics for acoustic guitar and electric guitar. Tablatures and chords are parodies/interpretations of the original songs. You may use it for private study, scholarship, research or language learning purposes only