» » »

Interesting Drug Bass tabs (ver.1)

Artists:  A B C D E F G H I J K L M N O P Q R S T U V W X Y Z # 

Interesting Drug Bass tabs (ver.1)

Morrissey
Rating:
0/5 (0 votes)

Hard to play? Try these video lessons and learn fast.
                Morrissey

Line A
G |--------------------------------|--------------------------------|
D |-----------------------5---4----|--------------------------------|
A |-5---------------------------7-5|-5-0---0---0-2-0-5-4-------0-2-4| 
E |---2---2---2-0-2-3-3---3--------|-----------------------3--------|
(Sometimes end with a slide)

Line B
G |--------------------------------|--------------------------------|
D |--------------------------------|-2------------------------------|
A |-5------------------------------|---0---0---0-2-0-5-4-------0-2-4|
E |---2---2---2-0-2-3-3---3---3-0-2|-----------------------3--------|

Chorus Bit
G |--------------------------------|--------------------------------|
D |--------------------------------|--------------------------------|
A |-------0-----4----------2----5--|-----------5--------------------|
E |-2-2-------2---2-3-3-----------3|-2----5-----------3----5--------|

G |--------------------------------|--------------------------------|
D |--------------------------------|--------------------------------|
A |-------0-----4----------2----5\-|/7-7-7x7-7-7-7\-----------------|
E |-2-------------2-3--------------|----------------3-3-3x3-3-3-3-5-| 

x=Use a triplet feeling

Instrumental
G |--------------------------------|--------------------------------|
D |--------------------------------|--------------------------------|
A |-------0-----4----------2----5\-|-------0-----4------------------|
E |-2-------------2-3--------------|-2-------------2-3------5-----0-|

G |--------------------------------|--------------------------------|
D |--------------------------------|--------------------------------|
A |-------0-----4----------2----5\-|/7-7-7x7-7-7-7\-----------------|
E |-2-------------2-3--------------|----------------3-3-3x3-3-3-3-5-|
 
x=Use a triplet feeling

Order:
[00:00] Line A,A
[00:15] Line B,B
[00:32] Line A,B
[00:48] Line A,B
[01:04] Chorus Bit
[01:20] Line A,B
[01:36] Line B,A
[01:52] Chorus Bit
[02:08] Line A,A
[02:24] Line B,A
[02:41] Instrumental
[02:56] Line A,B,A (Fade out)

 
            
Hard to play? Try these video lessons and learn fast. | Correct




comments powered by Disqus
↑ Back to top | Tablatures and chords are parodies/interpretations of the original songs. You may use it for private study, scholarship, research or language learning purposes only