» » »

Morrissey, I'm Throwing My Arms Around Paris Tabs (ver.1)

Artists:  A B C D E F G H I J K L M N O P Q R S T U V W X Y Z # 

I'm Throwing My Arms Around Paris Tabs (ver.1)

Morrissey Tabs
Rating:
0/5 (0 votes)
I'm Throwing My Arms Around Paris lessons Tabs too difficult? Try these video lessons and learn fast
                -------------------------------------------------------------------------------
                 I’m Throwing My Arms Around Paris - Morrissey
-------------------------------------------------------------------------------

Tuning: Standard, but all guitars Capo on second fret, so all chords/notes are relative 
that.

Music by Boz Boorer, Lyrics by Morrissey.

Here is the main piano part adapted for the guitar.
I stumbled across it by accident when fiddling about with the barre chords Jesse Tobias 
it sound okay to my ear!

X 3

e|---------------------------------------------------------------------------|
B|------3-------5---6-----6--5-----5-----------------------------------------|
G|----4---4---5---5---5-------5----------------------------------------------|
D|--5-------7-----------7-------7--------------------------------------------|
A|---------------------------------------------------------------------------|
E|---------------------------------------------------------------------------|

X 1
e|-----------0----------------0----------------------------------------------|
B|-------3-----3-----------1----1--------------------------------------------|
G|-----4---------4-------2--------2------------------------------------------|
D|---5-----5-------5-S-3-----3------3----------------------------------------|
A|---------------------------------------------------------------------------|
E|---------------------------------------------------------------------------|

This is the part Jesse Tobias plays on the electric guitar, with some distortion.
It is the same as above, except the individual arpeggio style picking is replaced by a 
slide up the fret board.

             G        Am           F      Am
e|--------------------------------------------------------------------------|
B|-----------3-Slide--5------------6------5---------------------------------|
G|-----------4--------5------------5------5---------------------------------|
D|-----------5--------7------------7------7---------------------------------|
A|--------------------------------------------------------------------------|
E|--------------------------------------------------------------------------|

The chords played by Boz Boorer on the acoustic guitar are as follows, remember, capo on 
fret.
The rhythm and timing is pretty simple really.

Verse:

G  Am  F  Am X 3


G
“I have decided…”


Chorus:

C      Am                 D7       F/ E7
“I’m throwing my arms around, around Paris,

Am         C             E     F
Because, only stone and steel, accept my love”


Hope this is okay, I don’t think I’ve missed anything out.
Any feedback or corrections are appreciated.
            
Submit corrections

comments powered by Disqus
↑ Back to top | Morrissey Tabs for I'm Throwing My Arms Around Paris. Lyrics for acoustic guitar and electric guitar. Tablatures and chords are parodies/interpretations of the original songs. You may use it for private study, scholarship, research or language learning purposes only