» » »

I Am Hated For Loving Bass tabs (ver.1)

Artists:  A B C D E F G H I J K L M N O P Q R S T U V W X Y Z # 

I Am Hated For Loving Bass tabs (ver.1)

Morrissey
Rating:
0/5 (0 votes)

Hard to play? Try these video lessons and learn fast.
                Morrissey

Intro
G |--------------------------------|--------------------------------|
D |-4---7---4----------------------|--------------------------------|
A |-------------5------------------|--------------------------------|
E |-----------------3-----------2--|-3-----------3---3-------5------|

G |--------------------------------|--------------------------------|
D |--------------------------------|--------------------------------|
A |-2-----------2---2-----------2--|--------------------------------|
E |--------------------------------|-3---------------5-------3------|

G |--------------------------------|--------------------------------|
D |-4---7---4----------------------|--------------------------------|
A |-------------5------------------|--------------------------------|
E |-----------------3-----------2--|-3-----------3---3-------5------|

G |--------------------------------|--------------------------------|
D |--------------------------------|-----2---5---7-----------5------|
A |-2-----------2---2-----------2--|-3------------------------------|
E |--------------------------------|--------------------------------|

Chorus
G |--------------------------------|--------------------------------|
D |--------------------------------|--------------------------------|
A |-5-----------5---5--------------|--------------------------------|
E |-----------------------------2--|-3-----------3---3-------5------|

G |--------------------------------|--------------------------------|
D |--------------------------------|------------\2-----------5------|
A |-2-----------2---2-----------2--|--------------------------------|
E |--------------------------------|-3------------------------------|

G |--------------------------------|--------------------------------|
D |--------------------------------|--------------------------------|
A |-5-----------5---5--------------|--------------------------------|
E |-----------------------------2--|-3-----------3---3-------5------|

G |--------------------------------|--------------------------------|
D |--------------------------------|--------------------------------|
A |-2-----------2---2-----------2--|--------------------------------|
E |--------------------------------|-3-----------6-----------5------|

Verse
G |--------------------------------|--------------------------------|
D |--------------------------------|-----------------5-------4------|
A |-2-----------2---4-----------4--|-5-----------5------------------|
E |--------------------------------|--------------------------------|

G |--------------------------------|---------5-------5---4----------|
D |-------------------------5------|-7-----------7-----------7---5--|
A |-5-----------5---5-----------5--|--------------------------------|
E |--------------------------------|--------------------------------|

G |--------------------------------|--------------------------------|
D |--------------------------------|--------------------------------|
A |--------------------------------|-2---0---------------0---0------|
E |-3-----------3---2-----------2--|-------------3------------------|

Break
G |--------------------------------|--------------------------------|
D |--------------------------------|--------------------------------|
A |-5-----------5---5-------5---5--|-7-------7---7---7---7---7\-----|
E |--------------------------------|--------------------------------|

G |--------------------------------|--------------------------------|
D |--------------------------------|--------------------------------|
A |--------------------------------|--------------------------------|
E |-2---2---2-------2---2---2------|-2---2---2-------2---2---\12----|

After Break
G |--------------------------------|--------------------------------|
D |-----------------------------5--|--------------------------------|
A |-5-----------5---5-------7------|--------------------------------|
E |--------------------------------|-3-----------3---3-------5------|

G |--------------------------------|--------------------------------|
D |--------------------------------|------------\2-----------5------|
A |-2-----------2---2-----------2--|--------------------------------|
E |--------------------------------|-3------------------------------|

Outro
G |--------------------------------|--------------------------------|
D |-6---9---6----------------------|--------------------------------|
A |-------------7------------------|--------------------------------|
E |-----------------5-----------4--|-5-----------5---5-------7------|

G |--------------------------------|--------------------------------|
D |--------------------------------|----------------\4-------7------|
A |-4-----------4---4-----------4--|-5------------------------------|
E |--------------------------------|--------------------------------|


Order:
[00:00] Intro
[00:16] Chorus
[00:33] Verse
Repeat this

[01:43] Intro
[02:00] Break
[02:08] After Break
[02:17] Verse
[02:33] Play first two bars of intro 2x
[02:49] Play last two bars of intro
[02:58] Outro until end
            
Hard to play? Try these video lessons and learn fast. | Correct




comments powered by Disqus
↑ Back to top | Tablatures and chords are parodies/interpretations of the original songs. You may use it for private study, scholarship, research or language learning purposes only