» » »

Hold On To Your Friends Tabs (ver.3)

Artists:  A B C D E F G H I J K L M N O P Q R S T U V W X Y Z # 

Hold On To Your Friends Tabs (ver.3)

Morrissey
Rating:
3/5 (1 vote)

Tabs too difficult? Try these video lessons and learn fast.
                Capo 4th fret

Intro:

e|------------------------------------0----------|
B|----------------------------3------------0-----|
G|--------0---------0----------------------------|  Repeat this three times
D|-----9---------8---------2---------------------|
A|-11---------9---------3---------3--------------|
E|-----------------------------------------------|

Then, fourth time

e|-----------------------------------------------|
B|-----------------------------------------3-----|
G|--------0---------0-----------------0----------|
D|-----9---------8---------0---2---4-------------|
A|-11---------9---------3------------------------|
E|-----------------------------------------------|


*Verse 1(All chord names relative of capo):

Firstly, there's a chord that I dont know the name of, I've called it A?. It's this

e|----3-------------|
B|----1-------------|
G|----0-------------|
D|----1-------------|
A|----0-------------|
E|------------------|


*Now for the Verse..

e|------------0-------------------0---------------|
B|---------------3-------------------3------------|
G|--------0---------0---------0---------0---------|
D|-----4------------------4-----------------------|
A|--2------------------3--------------------------|
E|------------------------------------------------|
  A        bond of     trust.....

e|------------0-------------------0---------------|
B|---------------3-------------------3------------|
G|--------0---------0---------0---------0---------|
D|-----4------------------4-----------------------|
A|--2------------------3--------------------------|
E|------------------------------------------------|
   Has     been        abused.....

Am           D        G
Something of value

G      C
May be lost

A?           G
Give up your job

G             C         A?
Squander your cash - be rash

Am                   D
Just hold on to your friends

*Back to Intro

*Verse 2 - Same Chords as Verse 1:

There are more than enough
To fight and oppose
Why waste good time
Fighting the people you like
Who will fall defending your name
Oh, don't feel so ashamed..

* Back to Intro over this line
To have friends

*Verse 3 - Same chords again

But now you only call me
When you're feeling depressed
When you feel happy I'm
So far from your mind
My patience is stretched
My loyalty vexed
Oh, you're losing all..

*Back to Intro over this line
of your friends

G               C
Hold on to your friends

     A? G
Hold on to your friends

G                C
Resist - or move on

   A?      G
Be mad, be rash

G            C
Smoke and explode

     A?          G
Sell all of your clothes

G            C
Just bear in mind :

A?   Am                     D
Oh, there just might come a time..

*Intro over this line
When you need some friends

Outro gets all electrified so I haven't done this..
            
Tabs too difficult? Try these video lessons and learn fast.


comments powered by Disqus
↑ Back to top | Tablatures and chords are parodies/interpretations of the original songs. You may use it for private study, scholarship, research or language learning purposes only