» » »

Hold On To Your Friends Bass tabs (ver.1)

Artists:  A B C D E F G H I J K L M N O P Q R S T U V W X Y Z # 

Hold On To Your Friends Bass tabs (ver.1)

Morrissey
Rating:
0/5 (0 votes)

Tabs too difficult? Try these video lessons and learn fast.
                Morrissey

Verse
G |--------------------------------|--------------------------------|
D |--------------------------------|-----------------------------4--|
A |--------------------------------|--------------------------------|
E |--------------------------------|--------------------------------|

Instrumental
G |--------------------------------|--------------------------------||
D |-6-------4-------2---------4-2--|---------------------------2-4--||
A |--------------------------------|---------1-------2--------------||
E |--------------------------------|-4------------------------------|| 3x

G |---------------------------4-6--|---------------------------4----|
D |-6-------4-------2--------------|--------------------------------|
A |--------------------------------|---------1-------2--------------|
E |--------------------------------|-4------------------------------|

Verse
G |--------------------------------|--------------------------------|
D |-----------------------------4--|-----------------------------4--|
A |-6-----------4-6-7-------------7|-6-----------4-6-7-------------7|
E |--------------------------------|--------------------------------|

G |--------------------------------|
D |-------------4-6-4-------6-4----|
A |-4---------------------------6--|
E |--------------------------------|

Bridge
G |--------------------------------|--------------------------------|
D |--------------------------------|-----------------5~~----4~~-----|
A |-2---------4-2-6----(6)-----4-6-|-7-------7-7---7----------------|
E |--------------------------------|--------------------------------|

G |-----------6-4------------------|---------5----------------------|
D |---------------6-5---4-2----4---|-6-----------4---5~~------------|
A |-2------------------------------|--------------------------------|
E |--------------------------------|--------------------------------|

Bridge End
G |--------------------------------|--------------------------------|
D |------------------------------6-|-4-----4-4-4-4-4-4-4---------4--|
A |-4-------4-4---4-4------4---7---|--------------------------------|
E |--------------------------------|--------------------------------|

Break
G |--------------------------------|--------------------------------||
D |-6-------4-------2--------------|--------------------------------||
A |--------------------------------|---------1-------2--------------||
E |--------------------------------|-4------------------------------|| 2x

G |--------------------------------|--------------------------------|
D |-6-------4-------2-------1------|-0------------------------------|
A |--------------------------------|-------------4-5-6--------------|
E |--------------------------------|--------------------------------|

G |--------------------------------|--------------------------------|
D |-6-------4-------2-------1------|-0-------------6-4--------6-4---|
A |--------------------------------|-------------7----------------6-|
E |--------------------------------|--------------------------------|

Outro
G |--------------------------------|--------------------------6-----|
D |-6-------4-------2-------1------|-0--------------------------4-5-|
A |--------------------------------|-------------4-5-6--------------|
E |--------------------------------|--------------------------------|

Order:
[00:00] Guitar Work (There might a B somewhere)
[00:47] Instrumental
[01:10] Verse
[01:18] Bridge | End
[01:35] Instrumental (First bar only once)
[01:xx] Verse
[01:54] Bridge | End
[02:11] Break
[02:34] Bridge 2x | End
[03:01] Outro until end

 
            
Tabs too difficult? Try these video lessons and learn fast.




comments powered by Disqus
↑ Back to top | Tablatures and chords are parodies/interpretations of the original songs. You may use it for private study, scholarship, research or language learning purposes only