» » »

Morrissey, Have-a-go Merchant Bass tabs (ver.1)

Artists:  A B C D E F G H I J K L M N O P Q R S T U V W X Y Z # 

Have-a-go Merchant Bass tabs (ver.1)

Morrissey Tabs
 Rating:
4/5 (4 votes)
Have-a-go Merchant lessons Tabs too difficult? Try these video lessons and learn fast
                Have-A-Go Merchant
Morrissey

Intro
G |--------------------------------|
D |-------------------------9^7----|
A |----5------------------------7--|
E |--------5-------7---------------|

Verse A
G |--------------------------------|--------------------------------|
D |-7---7-----------5---5----------|--------------------------------|
A |--------------------------------|-5---5-----------7---7----------|
E |--------------------------------|--------------------------------|

G |--------------------------------|--------------------------------|
D |-7---7-----------5---5---9^7----|-------------------------\9-----|
A |-----------------------------7--|-5---5---------------7^9--------|
E |--------------------------------|-----------------7^9------------|

Instrumental A
G |--------------------------------|--------------------------------|
D |-2---2---2---2------------------|--------------------------------|
A |-----------------0---0---0---0--|-----------------2---2---2---2--|
E |--------------------------------|-2---2---2---2------------------|

G |--------------------------------|--------------------------------|
D |--------------------------------|--------------------------------|
A |-4---4---4---4------------------|-5---5---5---5---6---6---6---6--|
E |-----------------2---2---2---2--|--------------------------------|

Verse B
G |--------------------------------|--------------------------------|
D |-7---7-----------5---5----------|--------------------------------|
A |--------------------------------|-5---5-----------7---7-----5^7--|
E |--------------------------------|-----------------------5^7------|

G |--------------------------------|--------------------------------|
D |-7---7-----------5---5---9^7----|--------------------------------|
A |-----------------------------7--|-5---5-----------7---7---5---7--|
E |--------------------------------|--------------------------------|

Bridge
G |--------------------------------|--------------------------------|
D |--------------------------------|--------------------------------|
A |-7---7---7---7---5---5---5---5--|-3---3---3---3---2---2---2---2--|
E |--------------------------------|--------------------------------|

G |--------------------------------|--------------------------------|
D |-----------------5---5---5---5--|--------------------------------|
A |-4---4---4---4------------------|--------------------------------|
E |--------------------------------|-5---5---5---5---7---7---7---7--|

Instrumental B
G |--------------------------------|--------------------------------|
D |-2---2---2---2------------------|-4---4---4---4------------------|
A |-----------------0---0---0---0--|-----------------2---2---2---2--|
E |--------------------------------|--------------------------------|

G |--------------------------------|--------------------------------|
D |-----------------4---4---4---4--|--------------------------------|
A |-4---4---4---4------------------|-5---5---5---5---6---6---6---6--|
E |--------------------------------|--------------------------------|

Break
G |--------------------------------|--------------------------------|
D |----------------\9---7----------|-----------------7---5---4------|
A |-5-----------------------7--(5)-|---------4---7---------------7--|
E |--------------------------------|--------------------------------|

G |--------------------------------|--------------------------------|
D |----------------\9---7----------|-------------------------9^7----|
A |-5-----------------------7--(5)-|---------4---7---------------7--|
E |--------------------------------|--------------------------------|

Order:
[00:00] Intro
[00:02] Verse A
[00:12] Instrumental A

[00:22] Verse B,A
[00:40] Bridge (A small baby girl...)
[00:50] Instrumental B
[01:08] Break (Ahh...yeah)
[01:18] Instrumental B (aHah...aHah...aHah)

[01:27] Verse B,A
[01:46] Instrumental B repeat until end(aHah...aHah...aHah)


 
            
Submit corrections

comments powered by Disqus
↑ Back to top | Morrissey Bass for Have-a-go Merchant. Lyrics for acoustic guitar and electric guitar. Tablatures and chords are parodies/interpretations of the original songs. You may use it for private study, scholarship, research or language learning purposes only