>
 >
Good Looking Man About Town

Good Looking Man About Town Bass Tabs

Morrissey - Good Looking Man About Town chords, tabs, tablatures, lyrics

Guitar lessons | Add/correct | Request | Top 50 tabs Artists:  A B C D E F G H I J K L M N O P Q R S T U V W X Y Z 0-9

Good Looking Man About Town Bass Tabs – Morrissey

CD, Sheet music, Poster

Do you like Good Looking Man About Town? Share with your friends now
Bass Tabs
Morrissey
Bass Tab


Bass comes in [00:17]

Verse

|-----------------------------|     |-4--4-2h4------------------|
|----2-x4-2--------2-x4-2-----|     |----------4---2--2-0h2-2---|
|-4---------4-2-4---------4-2-|     |---------------------------|
|-----------------------------| x 3 |---------------------------|

|----------------------------|
|----2-x4-2--------2-x4------|
|-4---------4-2-4-------2-2--|
|----------------------------|

Verse 2

|---------4-----------4------------4-----------4---|
|-----2-----------2-2----------2-2---2-----------2-|
|-4----------4-----------4--4----------4--4--------|
|--------------------------------------------------|

|-4--4-4-4p2---------------------------------4-------------4-|
|------------h4--2--2-2-2p0------------2-4-2---------2-4-2---|
|---------------------------h2---4--4----------4--4----------|
|------------------------------------------------------------|

Verse 3

|---------4-------------4-----|     |-4--4-4-4p2--------------------|
|-------2---2-4-------2---2-4-|     |------------h4--2--2-2-2p0-----|
|-4--4----------4--4----------|     |---------------------------h2--|
|-----------------------------| x 2 |-------------------------------|

|-------------4----------------|
|-------2-4-2------------2-----|
|-4--4----------4--4--4----2---|
|------------------------------|

Break "Marry me"

|-------------------------------------------------|
|-------------------------------------------------|
|-4-4-4-----4-2-2-2-----2-0-0-0-----0-------------|
|-------------------------------------2-2-2-2-----|

|-------------------------------------------------|
|-------------------------------------------------|
|-4-4-4-----4-6-6-6-----6-7-7-7-----7-------------|
|-------------------------------------5-5-5-5-----|

|-------------------------------------------------|
|-------------------------------------------------|
|-4-4-4-----4-2-2-2-----2-0-0-0-----0-0-0-0-0-----|
|-------------------------------------------------| (then rest 4 bars)

Verse 4

|-----------4------------4------------4--------------|
|------22-2---------22-2---------22-2---------22-4---|
|-4--4---------4--4---------4--4---------4--4--------|
|----------------------------------------------------|

|-4--4-44-4-----------------------------------------------|
|------------4-2--22-2-2-------2-x-4-2--------2-x-4-2-----|
|-------------------------2-4----------4-2-4----------4-2-|
|---------------------------------------------------------|

Verse 5

|-----------------------------|     |-4--4-44-4------------------|
|----2-x4-2--------2-x4-2-----|     |------------4-2--2-22-2-----|
|-4---------4-2-4---------4-2-|     |-------------------------2--|
|-----------------------------| x 2 |----------------------------|

|-----------------------------|
|----2-x4-2--------2-x4-2-----|
|-4---------4-2-4---------4-2-|
|-----------------------------|

Intrumental

|-------------4------------4------------4------------4--|     *() Miss first time 
|---------2-2----------2-2----------2-2----------2-2----|
|-4--(4)---------4--4---------4--4---------4--4---------|
|-------------------------------------------------------| x 2

Break "Sand"

|--------------------------------------2---1--|
|-----1---2------1---2------2-----------------|
|-4----------2----------0-------0--0----------|
|---------------------------------------------| x 2

Ending

|--------------4-------------4--|     *() Miss first time  
|-----------2-------------2-----|
|-4-4-4-(4)-------4-4-4-4-------|
|-------------------------------| x 4





Comments


Popular Morrissey tabs & chords
Interesting Drug Bass Tabs
Southpaw Bass Tabs
America Is Not The World Chords
Moonriver Chords
Picadilly Palare 1 Chords
Dial-A-Cliche Tabs
Last Of The Famous International Tabs
My Dearest Love Ukulele
Sister Im A Poet Ukulele
There Is A Light That Never Goes Out Ukulele


Song lyrics



↑ Back to top | Tablatures and chords are parodies/interpretations of the original songs. You may use it for private study, scholarship, research or language learning purposes only
© 2014 AZChords.com Contact us | Privacy policy | DMCA | Add/correct tabs | Request tabs | Top 50 tabs