» » »

Morrissey, Do Your Best And Don't Worry Bass tabs (ver.1)

Artists:  A B C D E F G H I J K L M N O P Q R S T U V W X Y Z # 

Do Your Best And Don't Worry Bass tabs (ver.1)

Morrissey Tabs
 Rating:
4/5 (4 votes)
Do Your Best And Don't Worry lessons Tabs too difficult? Try these video lessons and learn fast
                Morrissey

Intro
G |--------15---------15-----------|---------10---------10----------||
D |----15---------15------15-------|-----10---------10------10------||
A |-13---------13-------------13\--|-/8----------8--------------8\--||
E |--------------------------------|--------------------------------|| 2x

Verse
G |--------------------------------|--------------------------------||
D |-----------------------------3--|-----3---2---2---0--------------||
A |-0---0---3---0---5---0---3------|--------------------------------||
E |--------------------------------|---------------------0---3---5--|| 2x

G |--------------------------------|--------------------------------|
D |-----------------------------0--|-----0---3---0---5---0---3---0--|
A |-0---0---3---0---5---0---3------|--------------------------------|
E |--------------------------------|--------------------------------|

G |--------------------------------|--------------------------------|
D |-0-^-2---2---2---0-^-2---2---2--|-0-^-2---2---2---3(\)-----------|
A |--------------------------------|--------------------------------|
E |--------------------------------|---------------------0---3---5--|

Chorus
G |--------------------------------|--------------------------------||
D |--------------------------------|--------------------------------||
A |-3---3---3---3---5--------------|-----------------------------2--||
E |---------------------0---1---3--|-----3---3---3---3---3---5------|| 2x

G |--------------------------------|--------------------------------|
D |--------------------------------|--------------------------------|
A |-3---3---3---3---5--------------|---------------------3---6---3--|
E |---------------------0---1---3--|-----3---3---0------------------|

G |--------------------------------|--------------------------------|
D |--------------------------------|--------------------------------|
A |-6---6---6---6---6---6---6---6--|-3---5---5---3---5---5---3---5--|
E |--------------------------------|--------------------------------|

Interlude
G |--------------------------------|--------------------------------|
D |--------------------------------|--------------------------------|
A |-0-------0---0---0---0---0---0--|-0---0---0---0---0---0---2------|
E |--------------------------------|--------------------------------|

G |--------------------------------|--------------------------------|
D |--------------------------------|--------------------------------|
A |-3-------3---3---3---3---3---3--|-3---3---3---3---3---3---1------|
E |--------------------------------|--------------------------------|

G |--------------------------------|--------------------------------|
D |--------------------------------|--------------------------------|
A |-1-------1---1---1---1---1---1--|-1---1---1---1---1---0----------|
E |--------------------------------|-------------------------1---0--|

G |--------------------------------|--------------------------------|
D |--------------------------------|--------------------------------|
A |--------------------------------|--------------------------------|
E |-1---1---1---1---1---1---1---1--|-0---0---0---0---0---0---0---0--|

Break
G |--------------------------------|--------------------------------|
D |-5~~~~~-------------------------|--------------------------------|
A |--------------------------------|--------------------------------|
E |--------------------------------|--------------------------------| 4x

Outro
G |--------------------------------|--------------------------------|
D |--------------------------------|--------------------------------|
A |-8-^10--10--10---8-^10--10--10--|-8-^10--10--10------12--12--12--|
E |--------------------------------|--------------------------------|

G |--------------------------------|--------------------------------|
D |--------------------------------|--------------------------------|
A |-7-^-8---8---8---7-^-8---8---8--|-7-^-8---8---8------10--10--10--|
E |--------------------------------|--------------------------------|

G |--------------------------------|--------------------------------|
D |--------------------------------|--------------------------------|
A |-5-^-7---7---7---5-^-7---7---7--|-5-^-7---7---7----------10--10--|
E |--------------------------------|--------------------------------|

G |--------------------------------|--------------------------------|
D |--------------------------------|--------------------------------|
A |-6(6)6-------6(6)6-------6(6)6--|-----6(6)6-------6-------8------|
E |--------------------------------|--------------------------------|

Outro Low
G |--------------------------------|--------------------------------|
D |--------------------------------|--------------------------------|
A |--------------------------------|--------------------------------|
E |-3---3---3---3---3---3---3---3--|-3---3---3---3---3---3---3---3--|

G |--------------------------------|--------------------------------|
D |--------------------------------|--------------------------------|
A |--------------------------------|--------------------------------|
E |-1---1---1---1---1---1---1---1--|-1---1---1---1---1---1---1---1--|

G |--------------------------------|--------------------------------|
D |--------------------------------|--------------------------------|
A |--------------------------------|--------------------------------|
E |-0---0---0---0---0---0---0---0--|-0---0---0---0---0---0---0---0--|

G |--------------------------------|--------------------------------|
D |--------------------------------|--------------------------------|
A |-6(6)6-------6(6)6-------6(6)6--|-----6(6)6-------6-------8------|
E |--------------------------------|--------------------------------|

G |--------------------------------|--------------------------------|
D |--------------------------------|--------------------------------|
A |--------------------------------|--------------------------------|
E |\11/----\11/----\15/------------|\11/----\11/----\11/------------|


Order:
[00:00] Intro
[00:07] Verse

[00:20] Verse 2x
[00:47] Chorus

[01:01] Verse 2x
[01:34] Chorus 2x

[02:02] Interlude
[02:15] Chorus 2x

[02:42] Break
[02:52] Outro 3x
[03:37] Outro Low
            
Submit corrections

comments powered by Disqus
↑ Back to top | Morrissey Bass for Do Your Best And Don't Worry. Lyrics for acoustic guitar and electric guitar. Tablatures and chords are parodies/interpretations of the original songs. You may use it for private study, scholarship, research or language learning purposes only