» » »

Morrissey, Don't Make Fun Of Daddy's Voice Tabs (ver.1)

Artists:  A B C D E F G H I J K L M N O P Q R S T U V W X Y Z # 

Don't Make Fun Of Daddy's Voice Tabs (ver.1)

Morrissey Tabs
Rating:
0/5 (0 votes)
Don't Make Fun Of Daddy's Voice lessons Tabs too difficult? Try these video lessons and learn fast
                INTRO
E-----------------------------------------------------------|
B-----------------------------------------------------------|
G-----------------------------------------------------------|
D-----------------------------------------------------------|
A-----------------------------------------------------------|
E-00000000000000000000000000000000--------------------------|
First verse
(long ago... when he was...)
PALM MUTTED

E----------------------------------------------------------|
B--------------------------------------------------------- |
G----------------------------------------------------------|
D----------------------------------------------------------|  2 X
A----------------------------------------------------------|
E-000000000-4444444455555555----88887777-------------------|

CHORUS

    dont  make  fun of daddys...voice ....              he cant help it!
    D       B#b     F#M               Gm        E         A         Cm
E--2-2-2----1-1----2-2-2------------3-3-3-3---0-0-0-0----0-0-0-0---3-3--|
B--3-3-3----1-1----2-2-2------------3-3-3-3---0-0-0-0----2-2-2-2---4-4--|
G--2-2-2----3-3----2-2-2-----7b9----3-3-3-3---1-1-1-1----2-2-2-2---5-5--|
D--0-0-0----3-3----4-4-4------------5-5-5-5---2-2-2-2----2-2-2-2---5-5--|
A-----------1-1----4-4-4------------5-5-5-5---2-2-2-2----0-0-0-0---3-3--|
E-----------1-1----2-2-2------------3-3-3-3---0-0-0-0----0-0-0-0---3-3--|

        when he was...      boy!!                     stuck in his throat!
    D       B#b     F#M               Gm        E         A         Cm
E--2-2-2----1-1----2-2-2------------3-3-3-3---0-0-0-0----0-0-0-0---3-3--|
B--3-3-3----1-1----2-2-2------------3-3-3-3---0-0-0-0----2-2-2-2---4-4--|
G--2-2-2----3-3----2-2-2-----7b9----3-3-3-3---1-1-1-1----2-2-2-2---5-5--|
D--0-0-0----3-3----4-4-4------------5-5-5-5---2-2-2-2----2-2-2-2---5-5--|
A-----------1-1----4-4-4------------5-5-5-5---2-2-2-2----0-0-0-0---3-3--|
E-----------1-1----2-2-2------------3-3-3-3---0-0-0-0----0-0-0-0---3-3--|


2ND VERSE = FIRST VERSE

SOLO

E----12-12-12-12-12-12-12-12-12//19--19--19--19--19---------|
B-----------------------------------------------------------|
G---9--9--9--9--9--9--9--9--9//16--16--16--16--16-----------|  2 x
D-----------------------------------------------------------|
A-----------------------------------------------------------|
E-----------------------------------------------------------|

CHORUS 2 x

BRIDGE
    Bm          F#M
E---2-2--xxxx----2-2--------------------|
B---3-3--xxxx----2-2--------------------|
G---4-4--xxxx----2-2--------------------| 2 x
D---4-4--xxxx----4-4--------------------|
A---2-2--xxxx----4-4--------------------|
E---2-2--xxxx----2-2--------------------|

   Cm             E
E--3-3---xxxx----0-0-------------------|
B--4-4---xxxx----0-0-------------------|
G--5-5---xxxx----1-1-------------------|
D--5-5---xxxx----2-2-------------------| 2 x
A--3-3---xxxx----2-2-------------------|
E--3-3---xxxx----0-0-------------------|

E--------------------------------------|
B--------------------------------------|
G--------------------------------------|
D-------------0-2----------------------|
A-------0-2-3--------------------------|
E-0-2-4--------------------------------|

(No te divertes con papi no.. te divertes con papi no...)
the same as chorus

OUTRO = INTRO..

great song.. i think is correct, =)
            

comments powered by Disqus
↑ Back to top | Morrissey Tabs for Don't Make Fun Of Daddy's Voice. Lyrics for acoustic guitar and electric guitar. Tablatures and chords are parodies/interpretations of the original songs. You may use it for private study, scholarship, research or language learning purposes only