» » »

Morrissey, Dagenham Dave Bass tabs (ver.1)

Artists:  A B C D E F G H I J K L M N O P Q R S T U V W X Y Z # 

Dagenham Dave Bass tabs (ver.1)

Morrissey Tabs
 Rating:
4.2/5 (5 votes)
Dagenham Dave lessons Tabs too difficult? Try these video lessons and learn fast
1
                Morrissey

Chorus
G |--------------------------------|--------------------------------|
D |-----------------3-----------3--|-2-----------2---4---2----------|
A |-4--(4)--3---4-----------4------|---------4---------------4---2--|
E |--------------------------------|--------------------------------|

G |--------------------------------|
D |-----------------2---1----------|
A |-0-------4---2-----------4---2--| + An Chorus Ending
E |--------------------------------|

Chorus Ending A and B
G |--------------------------------|  |--------------------------------|
D |-4---4---4---4------------------|  |-4---4---4---4---4---4---4------|
A |--------------------------------|  |--------------------------------|
E |-----------------2---2---2---2--|  |--------------------------------|


Chorus Ending C and D
G |---------------------6----------|  |--------------------------------|
D |-4---4---4---4---6-------6---4--|  |-4---4---4---4------------------|
A |--------------------------------|  |-----------------5---5---5---5--|
E |--------------------------------|  |--------------------------------|

Verse
G |--------------------------------|--------------------------------|
D |--------------------------------|--------------------------------|
A |-6-----------6---2-----------2--|--------------------------------|
E |--------------------------------|-2-------4-------6-----------6--|

G |--------------------------------|--------------------------------|
D |--------------------------------|--------------------------------|
A |-6------------------------------|-4---4---4---4---4---4---4---4--|
E |---------4-------2-----------4--|--------------------------------|

G |--------------------------------|--------------------------------|
D |--------------------------------|--------------------------------|
A |-6-----------6---2-----------2--|--------------------------------|
E |--------------------------------|-2-------4-------6-----------6--|

G |--------------------------------|--------------------------------|
D |--------------------------------|--------------------------------|
A |-6------------------------------|-------------------------6\-----|
E |---------4-------2-----------2--|-4---4---4---4---4---6----------|

Interlude
G |--------------------------------|--------------------------------|
D |--------------------------------|--------------------------------|
A |-----------------3-----------3--|-2-----------2---4---4---4------|
E |-4-------2---4-----------4------|---------4-------------------2--|

G |--------------------------------|--------------------------------|
D |-2---2---2-------4---4---4------|--------------------------------|
A |--------------------------------|--------------------------------|
E |--------------------------------|-0---0---0-------2---2---2------|

G |--------------------------------|--------------------------------|
D |--------------------------------|--------------------------------|
A |-----------------6-----------6--|-5-----------5---7---5----------|
E |-7-------5---7-----------7------|---------7---------------7---5--|

G |--------------------------------|--------------------------------|
D |--------------------------------|--------------------------------|
A |--------------------------------|--------------------------------|
E |-3---------------5---5---5---5--|-5---5---5---5---6---6---6---6--|

Break
G |--------------------------------| ~ |--------------------------------|
D |--------------------------------| ~ |--------------------------------|
A |-6~~~---------------------------| ~ |--------------------------------|
E |--------------------------------| ~ |(4)-(4)--4---4---4---4---4---4--|

Outro
G |--------------------------------|--------------------------------||
D |--------------------------------|--------------------------------||
A |--------\9---7----------\4---2--|-------------------------2------||
E |-2/-----------------------------|-2-----------0---2--------------|| 3x

G |--------------------------------|--------------------------------||
D |--------------------------------|--------------------------------||
A |--------\12--10---------\7---5--|-------------------------5------||
E |-5/-----------------------------|-5-----------3---5--------------|| 3x

G |--------------------------------|
D |--------------------------------|
A |--------------------------------|
E |-7~~~---------------------------|

Order:
[00:00] Chorus | Ending D
[00:07] Verse
[00:22] Chorus 4x | Endings A,B,C,D
[00:52] Verse
[01:07] Chorus 4x | Endings A,B,C,D
[01:36] Interlude (Violins)
[01:51] Break
[02:06] Chorus 4x | Endings A,B,C,D
[02:35] Outro 3x

 
            
Submit corrections

comments powered by Disqus
↑ Back to top | Morrissey Bass for Dagenham Dave. Lyrics for acoustic guitar and electric guitar. 1 Tablatures and chords are parodies/interpretations of the original songs. You may use it for private study, scholarship, research or language learning purposes only