>
 >
Certain People I Know

Certain People I Know Guitar Tabs

Morrissey - Certain People I Know chords, tabs, tablatures, lyrics

Guitar lessons | Add/correct | Request | Top 50 tabs Artists:  A B C D E F G H I J K L M N O P Q R S T U V W X Y Z 0-9

Certain People I Know Guitar Tabs – Morrissey

CD, Sheet music, Poster

Do you like Certain People I Know? Share with your friends now
Bass TabsTabsTabs v2
#

Hi all, i decided to send you another song of The greatest Morrisey,
Which will be "Certain people i know" from his grammy nominated album
"Your arsenal".


Before i start, i wanna show you the pattern of the chords, they way they're
played:

                    G                   C      D     D#          Cm
                                                        or
E-|--------2-------2------2----2--------0------2-----6-----3------3-----------|
B-|--------2-----2------2---------------1------3-----8-----4------4-----------|
G-|----0-------0------0-----0-----0-----0------2-----8-----3------5-----------|
D-|-------------------------------------2------0-----8------------5-----------|
A-|-------------------------------------3------------6------------3-----------|
E-|-3-----------------------------------3-------------------------------------|


The fills :

1st fill :

E-|-10---10\8---7--8---8\10\8--7--5--7---7--7-----10---10\8---7--8--8-8--8----|
B-|-10---10\8---8--8---8\10\8--8--7--8---8--8-----10---10\8---8--8--8-8--8----|
G-|---------------------------------------------------------------------------|
D-|---------------------------------------------------------------------------|
A-|---------------------------------------------------------------------------|
E-|---------------------------------------------------------------------------|


E-|-8\10--10--10--10------|
B-|-8\10--10--10--10------|
G-|-----------------------|
D-|-----------------------|
A-|-----------------------|
E-|-----------------------|


2nd fill :


E-|-5\4\3\2---|
B-|-5\5\5\5---|
G-|-----------|
D-|-----------|
A-|-----------|
E-|-----------|

Now, in this fill - you play each noth 4 times after the slide,
which not counts as one.


3rd fill :


E-|----7\10\7\12\7\10\7----5--3------|
B-|----7\10\7\12\7\10\7----5--3------|
G-|----------------------------------|
D-|----------------------------------|
A-|----------------------------------|
E-|----------------------------------|

You play the 1st note 10 times, and after the 1st slide, play the
notes on the 10th fret 20 times, and after that you return to play
each note 10 times, excapt for the last 2, with are one strumming
only.


Outro :

For the outro, 1st play this part of the 1st fill.

E-|--10---10\8--7---8---8\10---10--10--10-|
B-|--10---10\8--8---8---8\10---10--10--10-|
G-|---------------------------------------|
D-|---------------------------------------|
A-|---------------------------------------|
E-|---------------------------------------|

after that, play this nice riff :


E-|----------------------------------------|
B-|----------------------------------------|
G-|-12-----9-7-----------------------------|
D-|------------9----5------------5---5\7~--|
A-|---------------------5--7--9------------|
E-|----------------------------------------|

And here are the chords :


G          C                D      G
 I take the cue from Certain People I Know,
C                       D             G        (Now you play the 1st fill)
 I use the cue and then I hand it on to you.

D#          Cm             D#         Cm
 And when I swing it so it catches his eye,
 D              C                 G
 Would you dare? You'd have died.
              C               D              G
 I trust the views of Certain People I Know,
              C               D                     G (And the 1st fill again)
 They look at danger and they laugh their heads off.
D#                 Cm       D#          Cm
 Their clothes are imitation George The Twenty-Third,
 D              C           G
 Don't you find this absurd?

             C              D                G
 I'd hate to be like Certain People I Know,
                  C               D
 They break their necks and can't afford to get them fixed
(Now play the 2nd fill, and after him the 3rd fill).


D#       Cm         D#        Cm
 They'd sacrifice all of their principles for,
D           C
 ``Anything casual'' --
G     C       D           G
 I do believe it's terrible.
C          D            G
 Oh, oh, oh. Ah, ah, ah.
C          D           G
 Oh, oh, oh. Ah, ah, ah.
 C          D               (Now is the 3rd fill, play it twice)
 Oh, oh, oh. Ah, ah, ah.


In the end, play again The G pattern, and the the outro.


Well, that's it for now. Again, any correction, comments, requests or

Goodbye for now.
Itay.





Comments


Popular Morrissey tabs & chords
Do Your Best And Don't Worry Bass Tabs
Satan Rejected My Soul Bass Tabs
Angel, Angel, Down We Go Together Chords
Sing Your Life Chords
There Is A Light That Never Goes Out Chords
Dear God, Please Help Me Tabs
Glamorus Glue (Intro) Tabs
I Know Very Well How I Got My Name 1 Tabs
Im Ok By Myself Ukulele
Ordinary Boys Ukulele


Song lyrics



↑ Back to top | Tablatures and chords are parodies/interpretations of the original songs. You may use it for private study, scholarship, research or language learning purposes only
© 2014 AZChords.com Contact us | Privacy policy | DMCA | Add/correct tabs | Request tabs | Top 50 tabs