» » »

Billy Budd Bass tabs (ver.1)

Artists:  A B C D E F G H I J K L M N O P Q R S T U V W X Y Z # 

Billy Budd Bass tabs (ver.1)

Morrissey
Rating:
4/5 (1 vote)

Hard to play? Try these video lessons and learn fast.
                Morrissey

Verse
G |--------------------------------|--------------------------------|
D |--------------------------------|--------------------------------|
A |-9-------9---9-7-----7-------7--|-9-------9---9-7-----7-------7--|
E |-------------------------9------|-------------------------9------|

Break A
G |--------------------------------|--------------------------------|
D |---------6-------7-------9------|--------------------------------|
A |-7------------------------------|---------6-------7-------9------|
E |-----------------------------7--|--------------------------------|

Break B
G |--------------------------------|--------------------------------|
D |--------------------------------|--------------------------------|
A |--------------------------------|---------6---6---7---7---9------|
E |-4-------4---4-------6-------7--|-7---7--------------------------|

Break C
G |--------------------------------|--------------------------------|
D |--------------------------------|--------------------------------|
A |---------9---9--10--10--12--12--|-12--12--10--10--12--12--10--10-|
E |-10---10------------------------|--------------------------------|

G |--------------------------------|------------------------9---9---|
D |---------8---8--9---9---11--11--|-11--11--9---9---11--11---------|
A |-9---9--------------------------|--------------------------------|
E |--------------------------------|--------------------------------|

G |--------------------------------|--------------------------------|
D |--------------------------------|---------9---9---11--11--12--12-|
A |---------9---9--10--10--12--12--|-12--12-------------------------|
E |-10--10-------------------------|--------------------------------|

G |--------------------------------|--------------------------------|
D |-11--11--11--11-9---9---9---9---|-8---8---8---8---6---6---6---6--|
A |--------------------------------|--------------------------------|
E |--------------------------------|--------------------------------|

End
G |--------------------------------|--------------------------------|
D |--------------------------------|--------------------------------|
A |-9---9---9----------------------|-9---9---9----------------------|
E |--------------------------------|--------------------------------|

G |--------------------------------|--------------------------------|
D |--------------------------------|--------------------------------|
A |-9---9---9----------------------|-9------------------------------|
E |--------------------------------|--------------------------------|

Order:
[00:00] Verse 2x
[00:06] Verse 2x | Break A | Verse
[00:19] Verse 2x | Break A | Verse
[00:31] Break 2  | Verse
[00:38] Verse 2x | Break A | Verse
[00:50] Break B  | Verse

[00:56] Verse 2x | Break A | Verse
[01:08] Verse 2x | Break A | Verse
[01:20] Break B | Verse
[01:27] Break C
[01:39] Verse 2x | Break A | Verse
[01:51] Break B | Verse
[01:57] Break B | End

 
            
Hard to play? Try these video lessons and learn fast. | Correct




comments powered by Disqus
↑ Back to top | Tablatures and chords are parodies/interpretations of the original songs. You may use it for private study, scholarship, research or language learning purposes only