» » »

Morrissey, Ammunition Tabs (ver.1)

Artists:  A B C D E F G H I J K L M N O P Q R S T U V W X Y Z # 

Ammunition Tabs (ver.1)

Morrissey Tabs
 Rating:
4/5 (4 votes)
Ammunition lessons Tabs too difficult? Try these video lessons and learn fast
                AMMUNITION by MORRISSEY, from the album 'MALADJUSTED', 1997



INTRO     (X2)      
   G         C        A          D        Em      C6           C        G       
|-------------------|-------------------|-------------------|-------------------|
|-------------------|------------7------|---7-8--10--8------|-------------------|
|-------------------|-------6----7------|-9-------9----9----|-------9---7-------|
|--9----9--/10------|-7-7-7---7--7------|-9------10---------|-10-10-----9-------|
|-10-10—10-/10------|-7----------5------|-7-------8---------|-10-------10-------|
|----------/8-------|-5-----------------|-------------------|--8----------------|


  C        G          C       G           A        D          B        E   
|----8---------7----|-----8-------7-----|----------5--------|-------------------|
|------8---------8--|-------8-------8---|-5--------7--------|-7-----------7-----|
|-9---------7-------|--9-------7--------|-6--------7--------|-8--------9--------|
|10---------9-------|-10-------9—-(7/9)-|-7--------7--------|-9--------9--------|
|10--------10-------|-10------10--------|-7--------5--------|-9--------7--------|
|-8-----------------|--8----------------|-5-----------------|-7-----------------|
(1) I know these roads, each ridge & narrow bridge, Each every one            en-ticing   me on, each one       
(2) I know these roads, an old  hand understands,   Above   all       I         know what's expected of me
(3) I've been crying. It comes back hard these Savior Days           and it stays        and it says 


  C6                   D                  G       C           A        D
|-------------------|--5----------------|-------------------|-------------------|
|--10--8------------|--7----------------|-------------------|-------------------|
|---9---------------|--7----------------|-------------------|-------------------|
|--10---------------|--7----------------|-------------------|-------------------|
|--10---------------|--5----------------|-------------------|-------------------|
|---8---------------|-------------------|-------------------|-------------------|
   inside,   I take in my stride                     I don't need more ammu -nition         I've got
   now....     veering cliffward                       I don't need more ammu -nition         I've got
  "We've never really been away"                     I don't need more ammu -nition         I've got
     
  Em       C           C        G         G       C           A        D
|-------------------|-------------------|-------------------|-------------------|
|-------------------|-------------------|-------------------|-------------------|
|-------------------|-------------------|-------------------|-------------------|
|-------------------|-------------------|-------------------|-------------------|
|-------------------|-------------------|-------------------|-------------------|
|-------------------|-------------------|-------------------|-------------------|
   more    than     I can  spend                     I don't dwell on things I'm  missing   I'm just
   more    than     I can  spend                     I don't dwell on things I'm  missing   I'm just
   more    than     I can  spend                     I don't think  of  who  I'm  missing   I'm just

  Em       C           D        C         G       C           D        C  
|-------------------|----------8--------|-------------------|-------------------|
|-------------------|----------8--8-10-8|-------------------|-------------------|
|-------------------|----------9-9------|-------------------|-------------------|
|-------------------|---------10--------|-------------------|-------------------|
|-------------------|---------10--------|-------------------|-------------------|
|-------------------|----------8--------|-------------------|-------------------|
  Pleased with the things I've found           with the things I've found        I've found
  Pleased with the things I've found           with the things I've found        I've found
  Pleased with the things I've found           with the things I've found        I've found

INTERLUDE     (X2)      
   G11      C9        A9         D        Em      C6           C        G       
|-10--------10------|-------------------|-------------------|-------------------|
|--8-------/-8------|------------7------|---10-8-10--8------|-------------------|
|--7-------/-9------|-------6----7------|-9-------9----9----|-------9---7-------|
|--9-------/10------|-7-7-7---7--7------|-9------10---------|-10-10-----9-------|
|-------------------|-7----------5------|-7-------8---------|-10-------10-------|
|-------------------|-5-----------------|-------------------|--8----------------|
            
Submit corrections

comments powered by Disqus
↑ Back to top | Morrissey Tabs for Ammunition. Lyrics for acoustic guitar and electric guitar. Tablatures and chords are parodies/interpretations of the original songs. You may use it for private study, scholarship, research or language learning purposes only