» » »

Alsatian Cousin Tabs (ver.1)

Artists:  A B C D E F G H I J K L M N O P Q R S T U V W X Y Z # 

Alsatian Cousin Tabs (ver.1)

Morrissey
Rating:
0/5 (0 votes)

Hard to play? Try these video lessons and learn fast.
                -------------------------------------------------------------------------------
-------------------------------------------------------------------------------

Tuning:EADGBe


Intro

e|--------------------------------------------------------------|
B|--------------------------------------------------------------|
G|-14r-14br-14r-14r-14/17b-161716-14-16-14-17b-16-17b-14-16/17b-|
D|--------------------------------------------------------------|
A|--------------------------------------------------------------|
E|--------------------------------------------------------------|

e|-----------------------------------------------|
B|-----------------------------------------------|
G|-1417141714171417141714-1416141614161416141614-|
D|-----------------------------------------------|
A|-----------------------------------------------|
E|-----------------------------------------------|

e|-----------------------------------|
B|-----------------------------------|
G|-171717171717161616161616-(14-16)/-|X3
D|-----------------------------------|
A|-----------------------------------|
E|-----------------------------------|

e|----------------------------------------------|
B|-----17--17--17--16---------------------------|
G|-16b---17--17--17--16--16/14/16b-14-14-16-16b-|
D|----------------------------------------------|
A|----------------------------------------------|
E|----------------------------------------------|


Verse 1
(Where you and he lovers? And would you say so if you were?...)

e|-0-00-1-11-3-33-1-11--0-00-1-11-1-11-1-11-|
B|-1-11-1-11-0-00-1-11--1-11-1-11-3-33-1-11-|
G|-2-22-2-22-0-00-2-22--2-22-2-22-2-22-2-22-|
D|-2-22-3-33-0-00-3-33--2-22-3-33-0-00-3-33-|
A|-0-00-3-33-2-22-3-33--0-00-3-33------3-33-|
E|------1-11-3-33-1-11-------1-11------1-11-|


Interlude 1
[Not quite sure, but it goes something like this, improvise a little bit]

e|---------------------------------------------------------------------|
B|-17b-17b17b-1715---17b-17b18-17-15-17b-17b17b-------17b-17b17b-------|
G|----------------17---------------------------17b-17b----------16b16b-|
D|---------------------------------------------------------------------|
A|---------------------------------------------------------------------|
E|---------------------------------------------------------------------|

e|-----------------------------------|
B|-----------------------------------|
G|-171717171717161616161616-(14-16)/-|X2
D|-----------------------------------|
A|-----------------------------------|
E|-----------------------------------|


Verse 2
(Where you and he lovers? And if you were, then say that you were!...)

e|-0-00-1-11-3-33-1-11--0-00-1-11-1-11-1-11-|
B|-1-11-1-11-0-00-1-11--1-11-1-11-3-33-1-11-|
G|-2-22-2-22-0-00-2-22--2-22-2-22-2-22-2-22-|
D|-2-22-3-33-0-00-3-33--2-22-3-33-0-00-3-33-|
A|-0-00-3-33-2-22-3-33--0-00-3-33------3-33-|
E|------1-11-3-33-1-11-------1-11------1-11-|


Interlude 2

e|---------------------------------------|
B|-17b-17-1515-181715-181715-------------|
G|--------------------------16r-1716-14r-|
D|---------------------------------------|
A|---------------------------------------|
E|---------------------------------------|

e|--------------------------------------|
B|-------181715-181715-21r-/1210121312r-|
G|-14-16--------------------------------|
D|--------------------------------------|
A|--------------------------------------|
E|--------------------------------------|

e|-------------1920r-/7-|
B|-17r-/(21)/22---------|
G|----------------------|
D|----------------------|
A|----------------------|
E|----------------------|

e|-1919192020--------------------19r-|
B|------------181715-181715-/2122----|
G|-----------------------------------|
D|-----------------------------------|
A|-----------------------------------|
E|-----------------------------------|


Verse 3

(A note upon his desk, P.S. Bring Me Home And Have Me...)
e|-0-00-1-11-3-33-1-11--0-00-1-11-1-11-1-11-|
B|-1-11-1-11-0-00-1-11--1-11-1-11-3-33-1-11-|
G|-2-22-2-22-0-00-2-22--2-22-2-22-2-22-2-22-|X2
D|-2-22-3-33-0-00-3-33--2-22-3-33-0-00-3-33-|
A|-0-00-3-33-2-22-3-33--0-00-3-33------3-33-|
E|------1-11-3-33-1-11-------1-11------1-11-|


Outro

e|-----------------------------------|
B|-----------------------------------|
G|-171717171717161616161616-(14-16)/-|X4
D|-----------------------------------|
A|-----------------------------------|
E|-----------------------------------|

e|----|
B|----|
G|-2r-|
D|-2r-|
A|-0r-|
E|-0r-|
            
Hard to play? Try these video lessons and learn fast. | Correct




comments powered by Disqus
↑ Back to top | Tablatures and chords are parodies/interpretations of the original songs. You may use it for private study, scholarship, research or language learning purposes only