>
 >
Hand In My Pocket

Hand In My Pocket Chords

Morissette Alanis - Hand In My Pocket chords, tabs, tablatures, lyrics

Guitar lessons | Add/correct | Request | Top 50 tabs Artists:  A B C D E F G H I J K L M N O P Q R S T U V W X Y Z 0-9

Hand In My Pocket Chords – Morissette Alanis

CD, Sheet music, Poster

Do you like Hand In My Pocket? Share with your friends now
ChordsChords v2TabsTabs v2Tabs v3
This is a great song that took forever to figure out, so I got the JLP
 
songbook.  After a while and after learning the chords I finally figured
out the 
live version of the song (with my own little things added). What are we
waiting  
for!?! 
 
----------------------------Hand in My
Pocket*----------------------------------- 
 
G5 
I'm broke but I'm happy 
 
G5 
I'm poor but I'm kind 
 
G5 
I'm short but I'm healthy, yeah 
 
G5 
I'm high but I'm grounded 
 
G5 
I'm sane but I'm overwhelmed 
 
G5 
I'm lost but I'm hopeful baby 
 
G5/F                        Am7  Em7 
What it all comes down to** 
 
Csus2                   (Dsus) G5 
Is that everything's gonna be fine fine fine** 
 
G5/F                            Am7  Em7 
I've got one hand in my pocket** 
 
Csus2                (Dsus)   G5 
And the other one is giving a high five** 
 
I feel drunk but I'm sober 
I'm young and I'm underpaid 
I'm tired but I'm working, yeah 
I care but I'm restless 
I'm here but I'm really gone 
I'm wrong and I'm sorry baby 
What it all comes down to** 
Is that everything's gonna be quite alright** 
I've got one hand in my pocket** 
And the other one is flicking a cigarette** 
 
G5/F                        Am7  Em7 
What it all comes down to** 
 
Csus2                               (Dsus)    G5 
Is that I haven't got it all figured out just yet** 
 
G5/F                             Am7  Em7 
I've got one hand in my pocket** 
 
Csus2                                   (Dsus) G5 
And other the one is giving is giving a peace sign** 
 
I'm free but I'm focused 
I'm green but I'm wise 
I'm hard but I'm friendly baby 
I'm sad but I'm laughing 
I'm brave but I'm chicken shit 
I'm sick but I'm pretty baby 
What it all boils down to** 
Is that no one's really got it figured out just yet** 
I've got one hand in my pocket** 
And the other one is playing the pianoooooooooooooo** 
 
CODA 
 X  
And what it all comes down to my dear friends** 
Is that everything's just fine fine fine** 
I've got one hand in my pocket** 
And the other one is hailing a taxi cab...** 
 
 
 
A few things... 
	(1). Each space is a sixteenth note (e.i. four spaces equal a  
	     quarter note) 
	(2). This song uses the regular E,A,D,G,B,E tuning (E,B,G,D,A,E 
	     if you prefer) 
	(3). This song sounds nice both w/ an electric (clean) and an  
	     acoustic. I'm not sure about a 12-string (cause I don't 
	     have one!!!) 
 
 G5  
|----3----3--3---|----3----3--3---|----3----3--3---|----3----3--3---|  
|--------3-------|--------3-------|--------3-------|--------3-------| 
|0------0--0----0|0------0--0----0|0------0--0----0|0------0--0----0| 
|----------------|----------------|----------------|----------------| 
|----------------|----------------|----------------|----------------| 
|----------------|----------------|----------------|----------------| 
                                              
 
 G5 
||----3----3--3---|----3----3--3---|----3----3--3---|----3----3--3---| 
||.-------3-------|--------3-------|--------3-------|--------3-------| 
||0------0--0----0|0------0--0----0|0------0--0----0|0------0--0----0| 
||----------------|----------------|----------------|----------------| 
||.---------------|----------------|----------------|----------------| 
||----------------|----------------|----------------|----------------| 
 
 G5 
|----3----3--3---|----3----3--3---|----3----3--3---|----3----3--3---| 
|--------3-------|--------3-------|--------3-------|--------3-------| 
|0------0--0----0|0------0--0----0|0------0--0----0|0------0--0-----| 
|----------------|----------------|----------------|----------------| 
|----------------|----------------|----------------|----------------| 
|----------------|----------------|----------------|--------------\1| 
 
G5/F     Am7,Em7 Csus2      Dsus*** G5 
|--------------00|----0--00-3/0---|----3----3------|-3--3----3--3---| 
|--------------10|----3--33-3/3---|--------3-------|3---3---3-------| 
|--------------00|0---0--00-0/0--0|0------0--0----0|-------0--0-----| 
|----0-------0-20|2---2--22-2/4---|----------------|----------------| 
|--------------01|3------33-3/5---|-------------02-|--0-------------| 
|1------11-1----0|-----------/5---|----------------|--------------\1| 
 
G5/F     Am7,Em7 Csus2      Dsus*** G5                      To Coda X  
|--------------00|----0--00-3/0---|----3----3------|-3--3----3--3---|| 
|--------------10|----3--33-3/3---|--------3-------|3---3---3------.|| 
|--------------00|0---0--00-0/0--0|0------0--0----0|-------0--0----0|| 
|----0-------0-20|2---2--22-2/4---|----------------|----------------|| 
|--------------01|3------33-3/5---|-------------02-|--0------------.|| 
|1------11-1----0|-----------/5---|----------------|----------------|| 
 
CODA                              +---------------------------------+ 
 X                                |The only distorted measures...   |  
G5/F     Am7,Em7 Csus2      Dsus*** G5   D5      A5 G5 
|--------------00|----0--00-3/0---|----------------|----------------| 
|--------------10|----3--33-3/3---|----------------|----------------| 
|--------------00|0---0--00-0/0---|------7---------|----------------| 
|----0-------0-20|2---2--22-2/4---|--5---7-------7\|5---5-5---555---| 
|--------------01|3------33-3/5---|--5---5-------5\|5---5-5---555---| 
|1------11-1----0|-----------/5---|--3-----------5\|3---3-3---333-\1| 
 
G5/F     Am7,Em7 Csus2      Dsus*** G5  
|--------------00|----0--00-3/0---|----3----3--3---|----3----3--3---| 
|--------------10|----3--33-3/3---|--------3-------|--------3-------| 
|--------------00|0---0--00-0/0--0|0------0--0----0|0------0--0----0| 
|----0-------0-20|2---2--22-2/4---|----------------|----------------| 
|--------------01|3------33-3/5---|----------------|----------------| 
|1------11-1----0|-----------/5---|----------------|----------------| 
 
G5                                                     (Fade out...) 
|----3----3--3---|----3----3--3---|----3----3--3---|----3----3--3---| 
|--------3-------|--------3-------|--------3-------|--------3-------| 
|0------0--0----0|0------0--0----0|0------0--0----0|0------0--0----0| 
|----------------|----------------|----------------|----------------| 
|----------------|----------------|----------------|----------------| 
|----------------|----------------|----------------|----------------| 
 
*-the beginning of each line starts on the last eight note of each  
  measure(the "yeah"'s and "baby"'s all have their own measures) 
**-exceptions to "*" 
***-slide up from C/G 
  
Chord List!!!! 
 
    G5          G5        G5/F         Am7         Em7       Csus2 
  ___xxx      xxxo__      _xoxxx      x_____      o_oooo      ___o_o 
3-o|||||      ||||||      o|||||      ||||o|      ||||||      |||||| 
  ||||||      ||||||      ||||||      ||o|||      |o||||      ||o||| 
  |oo|||      ||||oo      ||||||      ||||||      ||||||      |o||o| 
  ||||||      ||||||      ||||||      ||||||      ||||||      |||||| 
 
    D5          A5 
  x___xx      ___xxx 
5-|o||||    5-o||||| 
  ||||||      |||||| 
  ||oo||      |oo||| 
  ||||||      |||||| 
 
Here's what I did to the song: 
        (1). Added the Am7, Em7, and Dsus and edited the two measures after
them 
 
 ____________________________________________________________________ 
/                                                                    \ 
|     If you have anything to add or correct please e-mail me!!      | 
\____________________________________________________________________/





Comments


Popular Morissette Alanis tabs & chords
Ironic Bass Tabs
Uninvited 1 Bass Tabs
21 Things I Want In A Lover Chords
Perfect Chords
That I Would Be Good Unplugged Chords
You Learn Chords
21 Things I Want In A Lover Tabs
Head Over Feet Tabs
Joining You Intro Tabs
You Oughta Know Tabs


Song lyrics



↑ Back to top | Tablatures and chords are parodies/interpretations of the original songs. You may use it for private study, scholarship, research or language learning purposes only
© 2014 AZChords.com Contact us | Privacy policy | DMCA | Add/correct tabs | Request tabs | Top 50 tabs