>
 >
Soon

Soon Guitar Tabs

Moonpools And Caterpillars - Soon chords, tabs, tablatures, lyrics

Guitar lessons | Add/correct | Request | Top 50 tabs Artists:  A B C D E F G H I J K L M N O P Q R S T U V W X Y Z 0-9

Soon Guitar Tabs – Moonpools And Caterpillars

CD, Sheet music, Poster

Do you like Soon? Share with your friends now
Tabs
-------------------------------------------------------------------------------
-------------------------------------------------------------------------------

Tuning: Standard

Intro:
*drum beat

Csus2 - EM7 - Am7 - Am7

e--3--3-3-3--3---3--3-3-3--3---0--0-0-0--0---0--0-0-0--0---|
B--3--3-3-3--3---3--3-3-3--3---1--1-1-1--1---1--1-1-1--1---|
G--5--5-5-5--5---0--0-0-0--0---0--0-0-0--0---0--0-0-0--0---|
D--5--5-5-5--5---2--2-2-2--2---2--2-2-2--2---2--2-2-2--2---|
A--3--3-3-3--3---2--2-2-2--2---0--0-0-0--0---0--0-0-0--0---|
E----------------0--0-0-0--0-------------------------------|2X

Verse:

e--3--------3--------0--------0--------|
B--3--------3--------1--------1--------|
G--5--------0--------0--------0--------|
D--5--------2--------2--------2--------|
A--3--------2--------0--------0--------|
E-----------0--------------------------|

e--3--3-----3--3-----0--0-----0--0-----|
B--3----3---3----3---1----1---1----1---|
G--5--------0--------0--------0--------|
D--5--------2--------2--------2--------|
A--3--------2--------0--------0--------|
E-----------0--------------------------|

e--3--3-----3--3-----0--0-----0--0-----|
B--3----3---3----3---1----1---1----1---|
G--5--------0--------0--------0--------|
D--5--------2--------2--------2--------|
A--3--------2--------0--------0--------|
E-----------0--------------------------|

e--3--3-----3--3-----0--0-----0--0-----|
B--3----3---3----3---1----1---1----1---|
G--5--------0--------0--------0--------|
D--5--------2--------2--------2--------|
A--3--------2--------0--------0--------|
E-----------0--------------------------|

Chorus

e------------------------------------------------------------------|
B------------------------------------------------------------------|
G------------------5--5-5--5--5-5-------------------7--7-7--7--7-7-|
D--3--3-3--3--3-3--5--5-5--5--5-5--7--7-7--7--7-7---7--7-7--7--7-7-|
A--3--3-3--3--3-3--3--3-3--3--3-3--7--7-7--7--7-7---5--5-5--5--5-5-|
E--1--1-1--1--1-1------------------5--5-5--5--5-5------------------|

e------------------------------------------------------------------|
B------------------------------------------------------------------|
G------------------5--5-5--5--5-5----------------------------------|
D--3--3-3--3--3-3--5--5-5--5--5-5--7--7-7--7--7-7------------------|
A--3--3-3--3--3-3--3--3-3--3--3-3--7--7-7--7--7-7------------------|
E--1--1-1--1--1-1------------------5--5-5--5--5-5------------------|

Verse 2:

e--3--3-----3--3-----0--0-----0--0-----|
B--3----3---3----3---1----1---1----1---|
G--5--------0--------0--------0--------|
D--5--------2--------2--------2--------|
A--3--------2--------0--------0--------|
E-----------0--------------------------|4x

Chorus

e------------------------------------------------------------------|
B------------------------------------------------------------------|
G------------------5--5-5--5--5-5-------------------7--7-7--7--7-7-|
D--3--3-3--3--3-3--5--5-5--5--5-5--7--7-7--7--7-7---7--7-7--7--7-7-|
A--3--3-3--3--3-3--3--3-3--3--3-3--7--7-7--7--7-7---5--5-5--5--5-5-|
E--1--1-1--1--1-1------------------5--5-5--5--5-5------------------|3x

e------------------------------------------------------------------|
B------------------------------------------------------------------|
G------------------5--5-5--5--5-5----------------------------------|
D--3--3-3--3--3-3--5--5-5--5--5-5--7--7-7--7--7-7------------------|
A--3--3-3--3--3-3--3--3-3--3--3-3--7--7-7--7--7-7------------------|
E--1--1-1--1--1-1------------------5--5-5--5--5-5------------------|


Interlude:
(no guitar)

Last Chorus:-> same as 2nd chorus


| /  slide up
| \  slide down
| h  hammer-on
| p  pull-off
| ~  vibrato
| +  harmonic
| x  Mute note

===============================================================================





Comments


Popular Moonpools And Caterpillars tabs & chords
Hear Chords
Heaven Chords
Ren Chords
Colossal Youth Tabs
Heaven Tabs
Hear Ukulele
Heaven Ukulele
Ren Ukulele


Song lyrics



↑ Back to top | Tablatures and chords are parodies/interpretations of the original songs. You may use it for private study, scholarship, research or language learning purposes only
© 2014 AZChords.com Contact us | Privacy policy | DMCA | Add/correct tabs | Request tabs | Top 50 tabs