>
 >
Starliner

Starliner Guitar Tabs

Montrose - Starliner chords, tabs, tablatures, lyrics

Guitar lessons | Add/correct | Request | Top 50 tabs Artists:  A B C D E F G H I J K L M N O P Q R S T U V W X Y Z 0-9

Starliner Guitar Tabs – Montrose

CD, Sheet music, Poster

Do you like Starliner? Share with your friends now
Tabs
-------------------------------------------------------------------------------
-------------------------------------------------------------------------------

Tuning:normal
  Intro                        2x
e|--------------------------------|
B|--9-----------11----------------|
G|--9-----------11----------------|
D|--9-----------11----------------|
A|--7-7-7-7...--9--9-9-9...-------|
E|--------------------------------|
                               2x
e|--------------------------------|
B|--7-----------9-----------------|
G|--7-7-7-7...--9-9-9-9...--------|
D|--7-----------9-----------------|
A|--5-----------7-----------------|
E|--------------------------------|

  Verse (needs a little work)
e|------------------------------------------------------------------|
B|------------------------------------------------------------------|
G|------------------------------------------------------------------|
D|------------------------------------------------------------------|
A|-------------4466776644--22----------44--6-7--4-6--2-4---2--------|
E|--00446677-------------------224455--------------------4----4-2---|
  Bridge (strike only once)
e|-----------------|
B|--9--------------|
G|--9--------------|
D|--9--------------|
A|--7--------------|
E|-----------------|


Solo (best part)in the second time the solo is played don't srike the 2nd 6~ instead 
8b three times and the 3rd to last 8 is also bent
e|------------------------------------------------------------|
B|------------------------------------------------------------|
G|--------9-11b--9-8--8b-6~-------9-11b--9-8--8-8b-8b--6~-----|
D|--9-11---------------------9-11-----------------------------|
A|------------------------------------------------------------|
E|------------------------------------------------------------|

e|-----------------------------------------------------------------|
B|-----------------------------------------------------------------|
G|-----------------------------------------------------------------|
D|------------5-7-9--11b-11-9-11-13----11b-11b-11b-9----11bp----9--|
A|------4-5-7-----------------------9----------------11-----11-----|
E|--5-7------------------------------------------------------------|

e|---------------------13-14-14/-16-------|
B|------------13-14-16--------------------|
G|--9/-13-15------------------------------|
D|----------------------------------------|
A|----------------------------------------|
E|----------------------------------------|
  interlude (play this first bar a couple of times)
e|---------------------|
B|--7--------7---------|
G|--7--------7---------|
D|--7--------7---------|
A|--5-5-5-5--5-5-5-5---|
E|---------------------|
                       2x
e|-----------------------|
B|--7-7-7-7-7-7-7-7-7-x--|
G|--7-7-7-7-7-7-7-7-7-x--|
D|--7-7-7-7-7-7-7-7-7-x--|
A|--5-5-5-5-5-5-5-5-5-x--|
E|-----------------------|
  follow the beat until...
e|-----------------------|
B|--7-------7------------|
G|--7-------7------------|
D|--7-------7------------|
A|--5-55555-5-55555------|
E|-----------------------|

e|-----------------------------------------|
B|--7-9-11-9-7-9-11-11---9-7-9-11-9-7------|
G|--7-9-11-9-7-9-11-11---9-7-9-11-9-7------|
D|--7-9-11-9-7-9-11-11---9-7-9-11-9-7------|
A|--5-7-9--7-5-7-9--9----7-5-7-9--7-5------|
E|-----------------------------------------|
Then play the solo once more and remember the small change
  Outro
e|--------------------------------|
B|--7-7-7...-9-9-9...------7------|
G|--7-7-7...-9-9-9...------7------|
D|--7-7-7...-9-9-9...------7------|
A|--5-5-5...-7-7-7...------5------|
E|--------------------------------|


| /  slide up
| / slide down
| h  hammer-on
| p  pull-off
| ~  vibrato
| +  harmonic
| x  Mute note
===============================================================================





Comments


Popular Montrose tabs & chords
Bad Motor Scooter Bass Tabs
Connection Chords
Rock The Nation Chords
One Thing On My Mind Tabs
Rock The Nation Tabs
Space Station #5 Tabs
Spaceage Sacrifice Tabs
Spacs Station No 5 Tabs
Connection Ukulele
Make It Last Ukulele


Song lyrics



↑ Back to top | Tablatures and chords are parodies/interpretations of the original songs. You may use it for private study, scholarship, research or language learning purposes only
© 2014 AZChords.com Contact us | Privacy policy | DMCA | Add/correct tabs | Request tabs | Top 50 tabs