» » »

Spacs Station No Tabs (ver.1)

Artists:  A B C D E F G H I J K L M N O P Q R S T U V W X Y Z # 

Spacs Station No Tabs (ver.1)

Montrose
Rating:
4/5 (3 votes)

Hard to play? Try these video lessons and learn fast.
                "(5)
Tuning: Standard

Intro (behind thermin noises)

e --0--------I
B --0----7---I
G --0----7---I
D --2----7---I
A --2--------I
E --0--------I
    Em   D (harmonics)

Intro riff

e -----------------------------I
B --------9--------9---14--14--I
G --------9--------9---14--14--I
D --------9--------9---14--14--I
A --------7--------7---12--12--I
E --7--9--0--7--9--0-----------I
          E            A   A

Main riff

e ---------------------I
B --9--------9---7-----I
G --9--------9---7--6--I
D --9--------9---7--7--I
A --7--------7---5--7--I
E --0--7--9--0------5--I
    E            D  A

Chorus

e ----------------------------------------------------I
B -----------------------------7----------------------I
G --4--6--1--------------------7--1-------------------I
D --5--7--2--------------0--2--7--2-------------0--2--I
A --5--7--2--------0--2--------5--2--------0--2-------I
E --3--5--0--0--3-----------------0--0--3-------------I
    G  A  E                    D  E

e ------------------------------------------------------I
B -----------------------------7--2--5--7--5---2--5--7--I
G --4--6--1--------------------7--2--5--7--5---2--5--7--I
D --5--7--2--------------0--2--7--2--5--7--5---2--5--7--I
A --5--7--2--------0--2--------5--0------------0--------I
E --3--5--0--0--3---------------------------------------I
    G  A  E                    D  A  C  D  C   A  C  D

Bridge (noodle atmospherically until transition riff)

e --------------------------------------------------I
B --2-----------------------------------------------I
G --2-----9--7--5--7--5-----5-----------------------I
D --2--------------------7-----7--5--7--5-----------I
A --0--------------------------------------7--5--6--I
E --------------------------------------------------I
    A
"            
Hard to play? Try these video lessons and learn fast. | Correct




comments powered by Disqus
↑ Back to top | Tablatures and chords are parodies/interpretations of the original songs. You may use it for private study, scholarship, research or language learning purposes only