» » »

Montrose, Make It Last Tabs (ver.1)

Artists:  A B C D E F G H I J K L M N O P Q R S T U V W X Y Z # 

Make It Last Tabs (ver.1)

Montrose Tabs
 Rating:
4.3/5 (6 votes)
Make It Last lessons Tabs too difficult? Try these video lessons and learn fast
                Tuning: Standard

Main riff/verse

e ---------------------------------------------I
B --5\4--2---10--7-----------------2---10--7---I
G --5\4--2---10--7-----------------2---10--7---I
D --5\4--2---10--7-----------------2---10--7---I
A --------------------------0--3---------------I
E --------------------0--3---------------------I
    C B  A   F   D                 A   F   D

Chorus

e --------------------------------------------------------------I
B --5--5/7--2---5--5/7--2---5--5\4--10---5--5/7--2---7---2---7--I
G --5--5/7--2---5--5/7--2---5--5\4--10---5--5/7--2---7---2---7--I
D --5--5/7--2---5--5/7--2---5--5\4--10---5--5/7--2---7---2---7--I
A --3--3/5--0---3--3/5--0---3--3\2--8----3--3/5--0---5---0---5--I
E --------------------------------------------------------------I
    C  C D  A   C  C D  A   C  C B  F    C  C D  A   D   A   D

Solo

e -----------------------I
B --2---7--(5\4)--2---7--I
G --2---7--(5\4)--2---7--I
D --2---7--(5\4)--2---7--I
A --0---5---------0---5--I
E -----------------------I
    A   D   C B   A   D

Symbols:
\ = slide down
/ = slide up

Sammi is god :D
            
Submit corrections

comments powered by Disqus
↑ Back to top | Montrose Tabs for Make It Last. Lyrics for acoustic guitar and electric guitar. Tablatures and chords are parodies/interpretations of the original songs. You may use it for private study, scholarship, research or language learning purposes only