» » »

Montrose, I Got The Fire Tabs (ver.1)

Artists:  A B C D E F G H I J K L M N O P Q R S T U V W X Y Z # 

I Got The Fire Tabs (ver.1)

Montrose Tabs
4.2/5 (5 votes)
I Got The Fire lessons Tabs too difficult? Try these video lessons and learn fast

Composed by Ronnie Montrose
Lyrics at Sammy Hagar's official site:

You can follow the bass on open A during the verses.

Tuning: Standard

Main riff/chorus

e ---------------------------------------------------I
B ------------------------------------------5--7--2--I
G --------5-5-------5---7-5-----------------5--7--2--I
D ----5-7-5-5-7-5-7-5-7-----7-5-------------5--7--2--I
A --7-5-7-----7-5-7---7---------7-6-5-3-0---------0--I
E --7------------------------------------------------I
                                            C  D  A


e -----------------------------------------------------I
B -------2---5---7---2-------2---5---7---2---5-2--0-2--I
G -------2---5---7---2-------2---5---7---2---5-2--0-2--I
D -------2---5---7---2-------2---5---7---2---5-2--0-2--I
A ------(0)---------(0)-----(0)---------(0)------------I
E -(3)-------------------3-----------------------------I
         A   C   D   A       A   C   D   A   C A  G A

Verse end

e ------------------------I
B ------2---5---7-----8---I
G ------2---5---7-----7---I
D ------2---5---7-----6---I
A -----(0)------------7---I
E --3---------------------I
        A   C   D     E7#9

:) :) :) happy playing 

sammi is god!!!
Submit corrections

comments powered by Disqus
↑ Back to top | Montrose Tabs for I Got The Fire. Lyrics for acoustic guitar and electric guitar. Tablatures and chords are parodies/interpretations of the original songs. You may use it for private study, scholarship, research or language learning purposes only