» » »

Final Cremation Tabs (ver.1)

Artists:  A B C D E F G H I J K L M N O P Q R S T U V W X Y Z # 

Final Cremation Tabs (ver.1)

Monstrosity
Rating:
0/5 (0 votes)

Tabs too difficult? Try these video lessons and learn fast.
                #-- --#

tune from top string down to D,G,C,F,A,D

------------------|----------------------|------------------|--------------|--|
------------------|----------------------|------------------|--------------|--|
------------------|----------------------|------------------|-----------8\7|--|
------------------|----------------------|------------------|--------------|--|
-4-3-3-----121----|-4-3-3---3---3-121----|-4-3-3-----121----|-4-3-3---3-6\5|--|
-2-1-1-0-0-----0-0|-2-1-1-0-1-0-1-----0-0|-2-1-1-0-0-----0-0|-2-1-1-0-1----|--|
 intro     hp                     hp                 hp                 ss

------------------|----------------------|------------------|-----------------|
------------------|----------------------|------------------|-----------------|
------------------|----------------------|------------------|-----------8/9\8-|
------------------|----------------------|------------------|-----------------|
-4-3-3-----121----|-4-3-3---3---3-121----|-4-3-3-----121----|-4-3-3-----6/7\6-|
-2-1-1-0-0-----0-0|-2-1-1-0-1-0-1-----0-0|-2-1-1-0-0-----0-0|-2-1-1-0-0-------|
           hp                                        hp                 s

---|-------------------|-----------------|----------------|-------------------|
---|-------------------|-----------------|----------------|-------------------|
-\7|-------------------|-----------------|----------------|-------------------|
---|-------------------|-----------------|----------------|-------------------|
-\5|3-3-3-4-4-4--------|-----------------|---8-7-----5----|-------------------|
---|1-1-1-2-2-2-0-0-0-0|-0000000000000000|-5-----8-0---6-3|-------------------|
                         riff a    play 9 times

---------------|---------------|---------------|--------------|---------------|
---------------|---------------|---------------|--------------|---------------|
--------8/9\8\7|--------7/8\7\6|--------6/7\6\5|--------------|---------------|
---------------|---------------|---------------|--------------|---------------|
--------6/7\6\5|--------5/6\5\4|--------4/5\4\3|-5-4-5-7-5-4-3|---------------|
-000000--------|-000000--------|-000000--------|-3-2-3-5-3-2-1|---------------|
 riff b1  play riff b1 and b2 3 times

---------------|---------------|---------------|-------------|----------------|
---------------|---------------|---------------|-------------|----------------|
--------8/9\8\7|--------7/8\7\6|--------6/7\6\5|-------------|----------------|
---------------|---------------|---------------|---------10-9|----------------|
--------6/7\6\5|--------5/6\5\4|--------4/5\4\3|-7-6-7-9--8-7|----------------|
-000000--------|-000000--------|-000000--------|-5-4-5-7-----|----------------|
 riff b2

-------------------|----------------|----------------|----------------|-------|
-------------------|----------------|----------------|----------------|-------|
-------------------|----------------|----------------|----------------|-------|
-------------------|----------------|----------------|----------------|-------|
-3-3-3-4-4-4------2|----------------|-2-2-2-2-2-2-2-2|----------------|-------|
-1-1-1-2-2-2-0000-0|-444-111-333-000|-0-0-0-0-0-0-0-0|-444-111-333-000|-------|
                     riff c play 8 times

-----------------|------------------|------------------|------------------|---|
-----------------|------------------|------------------|------------------|---|
-----------------|------------------|------------------|------------------|---|
---------7-6-10-9|------------------|------------------|------------------|---|
-8-7-8-7-5-4--8-7|---8-7-----5-----3|---8-7-----5-----2|---8-7-----5-----3|---|
-6-5-6-5---------|-5-----8-0---6-3-1|-5-----8-0---6-3-0|-5-----8-0---6-3-1|---|


----------------|----------------|----------------|----------------|----------|
----------------|----------------|----------------|----------------|----------|
----------------|----------------|----------------|----------------|----------|
----------------|----------------|----------------|----------------|----------|
---8-7-----5----|-----2-2-2-2----|-----2-2-2-2----|-----2-2-2-2----|----------|
-5-----8-0---6-3|-000-0-0-0-0-000|-000-0-0-0-0-000|-000-0-0-0-0-000|----------|
                    riff d play 4 times

----------------|--------------------|--------------------|-------------------|
----------------|--------------------|--------------------|-------------------|
----------------|--------------------|--------------------|-------------------|
----------------|--------------------|--------------------|-------------------|
----------------|--------------------|------8888------7777|-------------------|
-666-555-444-333|-2222-3333-1111-2222|-5555------4444-----|-2222-3333-1111----|
                  riff e play 4 times

-----|---------------------------|--------------------------------|-----------|
-----|---------------------------|--------------------------------|-----------|
-----|---------------------------|--------------------------------|-----------|
-----|---------------------------|--------------------------------|-----------|
-----|------10-10-10-10------9999|-6-6-6-6-6-6-6-6-6-6-6-6-7-6-7-8|-----------|
-2222|-7777-------------6666-----|-4-4-4-4-4-4-4-4-4-4-4-4-5-4-5-6|-----------|
                                    break rythm

------------------------|------------------------|------------------------|---|
------------------------|------------------------|------------------------|---|
------------------------|------------------------|------------------------|---|
------------------------|------------------------|------------------------|---|
-4-4-4-4-3-3-3-3-7-6-7-8|-4-4-4-4-3-3-3-3-7-6-7-8|-4-4-4-4-3-3-3-3-7-6-7-8|---|
-2-2-2-2-1-1-1-1-5-4-5-6|-2-2-2-2-1-1-1-1-5-4-5-6|-2-2-2-2-1-1-1-1-5-4-5-6|---|
 play solo over this rythm

------------------------|------------------------|------------------------|---|
------------------------|------------------------|------------------------|---|
------------------------|------------------------|------------------------|---|
------------------------|------------------------|------------------------|---|
-4-4-4-4-3-3-3-3-7-6-7-8|-----------------7-6-7-8|-----------------7-6-7-8|---|
-2-2-2-2-1-1-1-1-5-4-5-6|-22222222111111115-4-5-6|-22222222111111115-4-5-6|---|


------------------------|------------------------|---------------|------------|
------------------------|------------------------|---------------|------------|
------------------------|------------------------|---------------|------------|
------------------------|------------------------|---------------|------------|
-----------------7-6-7-8|-----------------7-6-7-8|-4----3--------|------------|
-22222222111111115-4-5-6|-22222222111111115-4-5-6|-2----1--------|------------|
                                   stop lead here     break rythm

--------------------|----------------------------|----------------------|-----|
--------------------|----------------------------|----------------------|-----|
--------------------|----------------------------|----------------------|-----|
--------------------|----------------------------|----------------------|-----|
--------------------|----------------------------|-3-3-3-4-4-4---------2|-----|
--------------------|----------------------------|-1-1-1-2-2-2-0-0-0-0-0|-----|
 play riff a 9 times  play riff b1 and b2 3 times      end riff
            
Tabs too difficult? Try these video lessons and learn fast.




comments powered by Disqus
↑ Back to top | Tablatures and chords are parodies/interpretations of the original songs. You may use it for private study, scholarship, research or language learning purposes only