>
 >
The Angels Venom

The Angels Venom Guitar Tabs

Monstrosity - The Angels Venom chords, tabs, tablatures, lyrics

Guitar lessons | Add/correct | Request | Top 50 tabs Artists:  A B C D E F G H I J K L M N O P Q R S T U V W X Y Z 0-9

The Angels Venom Guitar Tabs – Monstrosity

CD, Sheet music, Poster

Do you like The Angels Venom? Share with your friends now
Tabs
Monstrosity- The Angel's Venom (tab ver. 1.0)



tune down 1 whole step (DAFCGD)

i have no idea if anyone has tabbed this yet. 
i think it's got the most badass riff though, so i went ahead and did it!

i'm not sure about some of the fills and the solos (emphasize solos),
everything else sounds right

riff 1 (2x)

gtr1&2
--------------------------------------------------------
--------------------------------------------------------
--------------------------------------------------------
--------------------------------------------------------
------------------------------5p4p2-5p4p2-5p4p2-5---4---
-6"-------/15"-------9"------------------------(3)-(2)--

gtr1
--------------------------------------------------------
--------------------------------------------------------
--------------------------------------------------------
--------------------------------------------------------
------------------------------5p4p2-5p4p2-5p4p2-5---4---
-6"-------/15"-------9"------------------------(3)-(2)--
gtr2
--------------------------------------------------------
--------------------------------------------------------
--------------------------------------------------------
--------------------------------------------------------
-4"-------/13"-------7"-------5p4p2-5p4p2-5p4p2-5---4---
-----------------------------------------------(3)-(2)--

chord is...

-------
-------
-------
-7-----
-7-----
-5-----

riff 2
whenever it is not palm muted,
tremolo pick the pattern instead of gallop picking

gtr1 always plays this... (palm mute when nescessary)

-----------------------------------------------------------------
-----------------------------------------------------------------
-----------------------------------------------------------------
-777-----777---------555-888-777-----777---------555-888-777-----
-----------------888-------------------------888-----------------
-----555-----666-----------------555-----666-----------------555-

-----------------------------------------------------------------
-----------------------------------------------------------------
-----------------------------------------------------------------
--777---------555-888-777-----777---------555-888-777-----3------
----------888-------------------------888-------------8---3------
------666-----------------555-----666-----------------6---1------

occasionally play this too... (usually every 2nd time)

----------------
----------------
----------------
---------5------
-8---7---5------
-6---5---3------

guitar 2 (this part will be long because of the harmonies..)

plays same (0:21)
-----------------------------------------------------------------
-----------------------------------------------------------------
-----------------------------------------------------------------
-777-----777---------555-888-777-----777---------555-888-777-----
-----------------888-------------------------888-----------------
-----555-----666-----------------555-----666-----------------555-

-----------------------------------------------------------------
-----------------------------------------------------------------
-----------------------------------------------------------------
--777---------555-888-777-----777---------555-888---------3------
----------888-------------------------888---------7---8---3------
------666-----------------555-----666-------------5---6---1------

4th up (0:32)
-----------------------------------------------------------------
-----------------------------------------------------------------
-777-----777---------555-888-777-----777---------555-888-777-----
-----------------888-------------------------888-----------------
-----555-----666-----------------555-----666-----------------555-
-----------------------------------------------------------------

-----------------------------------------------------------------
-----------------------------------------------------------------
--777---------555-888-777-----777---------555-888-777------------
----------888-------------------------888-----------------3------
------666-----------------555-----666-----------------8---3------
------------------------------------------------------6---1------

minor 3rd (0:43)
-----------------------------------------------------------------
-----------------------------------------------------------------
-555-----555---------333-666-555-----555---------333-666-555-----
-----------------666-------------------------666-----------------
-----333-----444-----------------333-----444-----------------333-
-----------------------------------------------------------------

-----------------------------------------------------------------
-----------------------------------------------------------------
--555---------333-666-555-----555---------333-666-555------------
----------666-------------------------666-----------------3------
------444-----------------333-----444-----------------8---3------
------------------------------------------------------6---1------

----------------
----------------
----------------
---------5------
-8---7---5------
-6---5---3------

play same (0:55)

5th up (1:06)
-----------------------------------------------------------------------------
-----------------------------------------------------------------------------
-999-----999------------777-101010-999-----999------------777-101010-999-----
-----------------101010----------------------------101010--------------------
-----777-----888-----------------------777-----888-----------------------777-
-----------------------------------------------------------------------------

-----------------------------------------------------------------------------
-----------------------------------------------------------------------------
--999------------777-101010-999-----999------------777-101010-999------------
----------101010----------------------------101010--------------------3------
------888-----------------------777-----888-----------------------8---3------
------------------------------------------------------------------6---1------

----------------
----------------
----------------
---------5------
-8---7---5------
-6---5---3------

same (1:18)

5th (1:29)

----------------
----------------
----------------
---------5------
-8---7---5------
-6---5---3------

minor 3rd (1:41) 2x

extra ending

--------------------------------------
--------------------------------------
--------------------------------------
---------5--------------3---------2---
-8---7---5------7---10--3-----2-2-2---
-6---5---3------5---8---1-----0-0-0---

same (2:06)

5th (2:16)

riff 3 (2:22)

----------------------------------------------------------
----------------------------------------------------------
----------------------------------------------------------
------------------------------------5"--------------------
--------7"------------2"-------------------2"----/6"--7"--
-0"------------3"------------1"---------------------------

riff 2 (2:35)

1st time guitar 2 plays same
2nd time guitar 2 plays 5th up

riff 3 (2:51)

riff 4 (3:05)

-----------------------------------------
-----------------------------------------
-----------------------------------------
----------------------------------6---6--
----------------------------------4---4--
-1"--------/10"-------4"--------00--00---

-------------------------------------------------
-------------------------------------------------
-------------------------------------------------
---------------------------------2-0-------------
-------------------------------------3-2---------
-1"--------/10"-------4"-----------------5-3-2-0-

-----------------------------------------
-----------------------------------------
-----------------------------------------
----------------------------------6---6--
----------------------------------4---4--
-1"--------/10"-------4"--------00--00---

-------------------------------------------------
-------------------------------------------------
-------------------------------------------------
---------------------------------2-0-------------
-------------------------------------3-2---------
-1"--------/10"-------4"-----------------5-3-----

fill

---------------------
---------------------
---------------------
---------------2h4h5-
---------2h3h5-------
-0-2-3-5-------------

riff 5 (3:22)
--------------------------------------------
--------------------------------------------
--------------------------------------------
--------------------------------------------
--------------------------------2"----------
-0"--------/10"-------3"--------------1"----

solo (3:31) w/ riff 5 2x

-------------------------------------------------------------------------
-------------------------------------------------------------------------
-------------------------------------------------------------------------
-14-12-10----------14-12-10----------------------------------------------
----------14-12-10----------14-12-10-14-12-10----------14-12-10----------
----------------------------------------------14-12-10----------14-12-10-

---------------------------------
---------------------------------
---------------------------------
---------------------------------
-14~~~~~~~~-15-14-12-14~~~~~~~---
---------------------------------

---------------------------------------------
----------------------------13-15-/18~~~~----
-------------------12h14h16------------------
----------12h14h15---------------------------
-12h14h15------------------------------------
---------------------------------------------

-t20p19t20p19p17p15-t20p19t20p19p17p15-15p13p12--------------
------------------------------------------------15p13p12~~~~-
-------------------------------------------------------------
-------------------------------------------------------------
-------------------------------------------------------------
-------------------------------------------------------------

play riff 4 (3:41)

solo (3:57) w/ riff 1 2x

--------------------------------------------------
--------------------------------------------------
--------------------------------------------------
-5p4p2-4p2---------------7p5p4-5p4----------------
-----------5-------2-3-5-----------7-------3-5-7--
-------------2-3-5-------------------3-5-7--------

---------------------------------------------------
---------------------------------------------------
---------------------------9p7p5-7p5---5-----------
-9p7p5-------10p9p7------------------9---9p7-9p7p5-
-------5h7h9--------7h9h10-------------------------
---------------------------------------------------

-----------------------------------------
-------------------------------ph--------
-9~~~~~-7h9-9bf---9p7h9~~~~----9~~~~-----
-----------------------------------------
-----------------------------------------
-----------------------------------------

-16-18-17-18-15-18-17-18-13-18-17-18----18-17-18-
-------------------------------------15----------
-------------------------------------------------
-------------------------------------------------
-------------------------------------------------
-------------------------------------------------

-----------------------------------------
-15~~~/17~~~-/18~18~~~~~-----------------
-----------------------------------------
-----------------------------------------
-----------------------------------------
-----------------------------------------

/17~~-17p15p13-15~~~------------------------------
--------------------/18~~-18p17p15-17~~~-17bh r~~-
--------------------------------------------------
--------------------------------------------------
--------------------------------------------------
--------------------------------------------------

-----------------------------------------------------
-18h20p18\17h18p17\15h17p15\13h15p13\12--------------
----------------------------------------14~~~~~~-----
-----------------------------------------------------
-----------------------------------------------------
-----------------------------------------------------

play this...

----------------
----------------
----------------
---------5------
-8---7---5------
-6---5---3------

play riff 2 (4:19)
harmony order:
same
minor 3rd
same w/ flanger until fade out (cut last beat out off riff)


please email any corrections or comments:

This file was downloaded from... 
Musical Manifestations 

enjoy!





Comments


Popular Monstrosity tabs & chords
A Casket For The Soul Tabs
Ceremonial Void Official Tabs
Destroying Divinity Tabs
Dust To Dust Tabs
Final Cremation Tabs
Perpetual War Tabs
The Eye Of Judgement Tabs


Song lyrics



↑ Back to top | Tablatures and chords are parodies/interpretations of the original songs. You may use it for private study, scholarship, research or language learning purposes only
© 2014 AZChords.com Contact us | Privacy policy | DMCA | Add/correct tabs | Request tabs | Top 50 tabs