» » »

Ceremonial Void Official Tabs (ver.1)

Artists:  A B C D E F G H I J K L M N O P Q R S T U V W X Y Z # 

Ceremonial Void Official Tabs (ver.1)

Monstrosity
Rating:
0/5 (0 votes)

Hard to play? Try these video lessons and learn fast.
                
                    CEREMONIAL VOID
MONSTROSITY’S 1ST ALBUM “IMPERIAL DOOM” ALL RIGHTS RESERVED   
ALL STRINGS TUNED DOWN 1 WHOLE STEP D,G,C,F,C,D
THIS SONG IS TRUE AND CORRECT 100ANY QUESTION’S, YOU CAN E-MAIL ME 
PRACTICE AND YOU WILL HAVE IT WITH EASE!!!!

 (P.M.)=PALM MUTED, BASS IS THE SAME…AS I ADDED SOME OTHER CHORDS HERE 
AND THERE AS WELL AS MY OWN FILLS.
OPENING P.M.
 THIS IS FOR 1ST GUITAR, SO LISTEN FOR THE STOPS FOR RHYTHM.
 |-------------------------------|----------------------------------|
 |-------------------------------|----------------------------------|
 |-------------------------------|----------------------------------|
 |-------------------------------|----------------------------------|
 |------------2----3---4---------|----------------------------------|
 |------------0----1---2---------|----------------------------------|
RIFF A                                                 REPEAT 4X
 |-------------------------------|----------------------------------|
 |-------------------------------|----------------------------------|
 |-------------------------------|----------------------------------|
 |-------------------------------|----------------------------------|
 |--------------------234--------|---------------------234----------|
 |111111111111000000--012--------|111111111111222222---012----------|

RIFF B 
 |-------------------------------|----------------------------------|
 |-------------------------------|----------------------------------|
 |-------------------------------|----------------------------------|
 |-------------------------------|----------------------------------|
 |23—3333----2222----------------|------------------5423------------|
 |01---------------5555----------|3333 2222---------3201------------|

                                                       REPEAT 4X
 |-------------------------------|----------------------------------|
 |-------------------------------|----------------------------------|
 |-------------------------------|----------------------------------|
 |-------------------------------|----------------------------------|
 |3333----2222-------------------|--------------------3-------------|
 |-----------------5555----------|3333--2222-----0000-1-------------|

  RIFF C P.M. THROUGH OUT
 |-------------------------------|----------------------------------|
 |-------------------------------|----------------------------------|
 |-------------------------------|----------------------------------|
 |-------------------------------|----------------------------------|
 |4---5-4---2-------1------------|4------5-4----2-------1-----------|
 |-2-4---5-----4-3------3-2------|---2-4-----5-----4-3-----3-2------|


 |-------------------------------|----------------------------------|
 |-------------------------------|----------------------------------|
 |-------------------------------|----------------------------------|
 |-------------------------------|----------------3--2--------------|
 |4-------5--4-----2-------1-----|4------5--4-----1--0--5--3--------|
 |--2--4--------5-----4--3----3-2|--2--4-------5--------3--1--------|

  VERSE…RIFF-B 2 TIMES,THEN RIFF C
 RIFF D P.M.
------ --------------------------|----------------------------------|
 |-------------------------------|----------------------------------|
 |-------------------------------|----------------------------------|
 |-----------------------2--1----|-------6--5--9--8-----------------|
 |4--3----------4-3-4------------|4--3---4--3--7--6-----------------|
 |2--1--2-1-2--------------------|2--1------------------------------|

|--------------------------------------------------------------------|
|--------------------------------------------------------------------|
|--------------------------------------------------------------------|
|----------------------2--1------------------------------------------| 
|----------4--3--4---------------------------------------------------|
|2--1--2-------------------------------------------------------------|
REPEAT 4 TIMES

 
|------------------|-----------------|-------------------------------|
|------------------|-----------------|-------------------------------|
|------------------|-----------------|-------------------------------|
|------------------|-----------------|-------------------------------| 
|--------2-3-4-----|----3-4-5----3---|--------2-3-4------------------|
|2-2-2-2--------2--|3-3--------0-1---|2-2-2-2--------2---------------|

|---------------|-----------------|----------------|-----------------|
|---------------|-----------------|----------------|-----------------|
|---------------|-----------------|----------------|-----------------|
|---------------|-----------------|----------------|-----------------| 
|----3-4-5----3-|--------2-3-4----|----3-4-5-----3-|--------2-3-4----|
|3-3--------0-1-|2-2-2-2--------2-|3-3--------0--1-|2-2-2-2--------2-|

|--------------------------------------------------------------------|
|--------------------------------------------------------------------|
|--------------------------------------------------------------------|
|--------------------------------------------------------------------| 
|----3-4-------------------------------------------------------------|
|3-3------6-5-4-5-7-6-5-4--------------------------------------------|

                                    ENTIRE RIFF        ^REPEAT 1 TIME^


|----------------|-----------------|---------------------------------|
|----------------|-----------------|---------------------------------|
|----------------|-----------------|---------------------------------|
|----------------|-----------------|---------------------------------| 
|----------------|-----------------|---------------------------------|
|4-3-4-6-5-4-3-2-|5-4-5-7-6-5-4-3--|4-3-4-6-5-4-3-2------------------|


|-----------------|--------------------------------------------------|
|-----------------|--------------------------------------------------|
|-----------------|--------------------------------------------------|
|-----------------|--------------------------------------------------| 
|--------7-6------|--------6-5----------REPEAT 1 TIME----------------|
|5-4-5-7-5-4------|4-3-4-6-4-3---------------------------------------|

                                               REPEAT 4 TIMES  
|-----------------------|--------------------------------------------|
|-----------------------|--------------------------------------------|
|-----------------------|--------------------------------------------|
|-----------------------|--------------------------------------------| 
|------------6-5--------|--------------5-4---------------------------|
|5-4-5-7-6-5-4-3--------|--4-3-4-6-5-4-3-2---------------------------|


|--------------------------|-----------------------------------------|
|--------------------------|-----------------------------------------|
|--------------------------|-----------------------------------------|
|--------------------------|-----------------------------------------| 
|3-3-3-3--2-2-2-2----------|------------------5-4-2-3----------------|
|-------------------5-5-5-5|3-3-3-3-2-2-2-2---3-2-0-1----------------|


|-------------------------------|------------------------------------|
|-------------------------------|------------------------------------|
|-------------------------------|------------------------------------|
|-------------------------------|------------------------------------| 
|2-3---3-3-3-3--2-2-2-2---------|----------------------------3-------|
|0-1---------------------5-5-5-5|3-3-3-3--2-2-2-2--0-0-0-0---1-------|

RIFF B 2 TIMES 

RIFF E          REPEAT 4 TIMES
|----|-----------|---------------------------------------------------|
|----|-----------|---------------------------------------------------|
|----|-----------|---------------------------------------------------|
|7---|-6---------|---------------------------------------------------| 
|5---|-4--5-4-3--|---------------------------------------------------|
|3---|-2--3-2-1--|---------------------------------------------------|
            P.M.  
           
|--------------------|--------------|-------------------|------------|
|--------------------|--------------|-------------------|------------|
|--------------------|--------------|-------------------|------------|
|--------------------|--------------|-------------------|3333--5555--| 
|0000-5555-8888-7777-|3333-5555-543-|0000-5555-3333-2222|------------|
|--------------------|----------321-|-------------------|------------|
     REPEAT 1 TIME
|---|----------------------------------------------------------------|
|---|----------------------------------------------------------------|
|---|----------------------------------------------------------------|
|---|----------------------------------------------------------------| 
|543|----------------------------------------------------------------|
|321|----------------------------------------------------------------|

THEN BACK TO RIFF E 4 TIMES ADDING WHOLENOTE ON 1ST FRET (LISTEN)
SOLO= BACK TO RIFF A THEN THE FUN RIFF BELOW

|---------------|----------------------|-----------------------------|
|---------------|----------------------|-----------------------------|
|---------------|----------------------|-----------------------------|
|---------------|76-10-976-------------|-----------------------------| 
|2--22—4\3---22-|54—8--754---76-10-976-|2-22---4\3----/76/10-9-\-----|
|0--00-2\1---00-|------------54-8--754-|0—00---2\1----/54/8--7-\-----|
  1.3.---------| 2.4      SLOW RIFF AFTER
|--------------|---------|-------|--|-----------|----|---------------|
|--------------|---------|-------|--|-----------|----|---------------|
|--------------|---------|-------|--|-----------|----|---------------|
|--------------|76-------|-------|--|-----------|----|---------------| 
|/76-/10-9\----|54-7654--|----2--|3-|/76-/10-9\-|-2--|--3------------|
|/54-/8—7\-----|---5432--|----0--|1-|/54-/8--7\-|-0--|--1------------|

|--------|---------------------------------------------|-------------|
|--------|---------------------------------------------|-------------|
|--------|---------------------------------------------|-------------|
|76------|---------------------------------------------|-------------| 
|54-7654-|---------------------------------------------|-43----------|
|---5432-|---------------------------------------------|-21----------|
AFTER THIS GO TO RIFF B 3 TIMES,
THEN RIFF C..
THEN RIFF D
THEN LAST TO NOTES ON END!!!!!ENJOY!!!!
            
Hard to play? Try these video lessons and learn fast. | Correct




comments powered by Disqus
↑ Back to top | Tablatures and chords are parodies/interpretations of the original songs. You may use it for private study, scholarship, research or language learning purposes only