>
 >
A Casket For The Soul

A Casket For The Soul Guitar Tabs

Monstrosity - A Casket For The Soul chords, tabs, tablatures, lyrics

Guitar lessons | Add/correct | Request | Top 50 tabs Artists:  A B C D E F G H I J K L M N O P Q R S T U V W X Y Z 0-9

A Casket For The Soul Guitar Tabs – Monstrosity

CD, Sheet music, Poster

Do you like A Casket For The Soul? Share with your friends now
Tabs
.  - palm mute           /  - slide up to
\  - slide down to       ~  - vibrato
h  - hammer on           b  - Bend
p  - pull off            Suffixes for bend
t  - tap                 f  - full bend    h - half bend
ph - pinched harmonic    q  - quarter bend t - tap bend
*  - see comment         ^  - Hold bend    r release bend
x  - Stuccatto           ~  - vibrato bend
,  - slight palm mute    () - ghost note, sustained note
"  - tremolo note        <> - Trill

Tunning D G C F A D

fill 1 play x1
guitar 1
|----------------------------------|
|----------------------------------|
|----------------------------------|
|10-9-7---------10-9-7-------------|
|-------10-9-7---------10-9-7--6-7-|
|------------------------------4-5-|

guitar 2
|-----------------------------------|
|-----------------------------------|
|-----------------------------------|
|-----------------------------------|
|8-7-5----------8-7-5----------6-7--|
|--------8-7-5----------8-7-5--4-5--|


Riff 1 2x
guitar 1
|---------------------------------------------------------------------------|
|---------------------------------------------------------------------------|
|---------------------------------------------------------------------------|
|---------------------------------------------------------------------------|
|-------6"-7"-----------------------------------6"-7"-----------------------|
|0"--5"-------0"--1"--3"-4"--3"-4"--6"---0"--5"-------0"--1"--3"-4"--8"--7"-|

guitar 2
|---------------------------------------------------------------------------|
|---------------------------------------------------------------------------|
|---------------------------------------------------------------------------|
|---------------------------------------------------------------------------|
|-------6"-7"-----------------------------------6"-7"----------------10"--9"|
|0"--5"-------0"--1"--3"-4"--3"-4"--6"---0"--5"-------0"--1"--3"-4"---------|

both guitars play this after playing riff 1 2x
|---------|
|---------|
|---------|
|4------4-|
|2------2-|
|2-2222-2-|
   ....

Riff 2 4x
guitar 1
|--------------------------------------------|
|--------------------------------------------|
|--------------------------------------------|
|--------------------------------------------|
|----7"-10"-9"-------------7"-10"-9"-----8"--|
|0"-------------10"-8"--0"------------10"----|

guitar 2 play the above first 2x then play below last 2x
|--------------------------------------------|
|--------------------------------------------|
|--------------------------------------------|
|----9"-12"-11"------------9"-12"-11"----10"-|
|---------------12"-10"---------------12"----|
|0"---------------------0"-------------------|


Riff 3 4x
guitar 1
|------------------------------------------------------------------------------|
|------------------------------------------------------------------------------|
|------------------------------------------------------------------------------|
|-----------------------5-4-5----------------------------------------5-4-5-----|
|-----------------------7\6/7--10-9h10p9h10p9------------------------7\6/7-1-2-|
|0000--8-7h8p7h8p7-0000------------------------0000-8-7h8p7h8p7-0000-------2-3-|
 ....              ....                        ....             ....

|------------------------------------------------------------------------------|
|------------------------------------------------------------------------------|
|------------------------------------------------------------------------------|
|-----------------------5-4-5--8--7h8p7h8p7--------------------------5-4-5-----|
|-----------------------7\6/7----------------------------------------7\6/7-1-2-|
|0000--8-7h8p7h8p7-0000------------------------0000-8-7h8p7h8p7-0000-------2-3-|
 ....              ....                        ....             ....

Riff 2 x4
Riff 3 x4

Riff 4 under solo
guitar 1                      x2                                      x2
|-------------------------------|---------------------------------------|
|-------------------------------|---------------------------------------|
|-------------------------------|---------------------------------------|
|----4----5----7----4----5-----2|----9-----10------12----9-----7-----10-|
|--2----3----5----2----3-----2--|--7-----8------10-----7-----5-----8----|
|2-.--3-.--5-.--2-.--3-.---0-.--|7-.---8-.---10--.---7-.---5-.---8-.----|
 .    .    .     .   .     .     .     .      .      .     .     .
guitar 2                      x2                                      x2
|-------------------------------|---------------------------------------|
|-------------------------------|---------------------------------------|
|-------------------------------|----11----12------14----11----9-----12-|
|----9---10----12----9----10---7|--9-----10-----12-----9-----7-----10---|
|--7----8----10----7----8----5--|9-.---10-.--12-.----9-.---7-.---10-.---|
|7-.--8-.--10-.--7-.--8-.--5-.--|.------.-----.------.-----.------.-----|
 .    .     .    .    .     .

Riff 5 x2
both guitars
|--------------------------------------------------------|
|--------------------------------------------------------|
|--------------------------------------------------------|
|---------5-4------7-------------------5-4---------------|
|---------3\2------5-----5-7-----------3\2------5--4-5-7-|
|22222222-----2222---222-3/5--22222222-----2222-3--2-3-5-|
 ........     ....   ...      ........     ....

|--------------------------------------------------------|
|--------------------------------------------------------|
|--------------------------------------------------------|
|---------5-4------7-------------------5-4---------------|
|---------3\2------5-----5-7-----------3\2------5--3-----|
|22222222-----2222---222-3/5--22222222-----2222-3--1-----|
 ........     ....   ...      ........     ....

Riff 4 x4 under solo

fill 2
guitar1
|----------------------------|
|----------------------------|
|----------------------------|
|---------5-4------7---------|
|---------3\2------5-----5-7-|
|22222222-----2222---222-3/5-|
 ........     ....   ...

guitar2
|------------------------------|
|------------------------------|
|------------------------------|
|---------5-4------7---------2-|
|---------3\2------5-----5-7-2-|
|22222222-----2222---222-3/5-0-|
 ........     ....   ...


Riff 6
guitar 1
|--------------------------------------------------------------------|
|--------------------------------------------------------------------|
|--------------------------------------------------------------------|
|--------------------------------------------------------------------|
|7-8-5-7-5-------------------------7-8-5-7-5-------------------------|
|----------8-7-8--000-000-000-000------------8-7-8--111-111--3-1-0-1-|
                  ... ... ... ...                   ... ...  . . . .
guitar 2
|---------|
|---------|
|---------|
|-Rest----|
|---------|
|---------|


guitar 1
|--------------------------------------------------------------|
|--------------------------------------------------------------|
|--------------------------------------------------------------|
|--------------------------------------------------------------|
|7-8-5-7-5-------------------------7-8-5-7-5--------3----------|
|----------8-7-8--000-000-000-000------------8-7-8--1--3-1-0-1-|
                  ... ... ... ...                      . . . .
guitar 2
|--------------------------------------------------|-----------|
|--------------------------------------------------|-----------|
|------------Rest----------------------------------|-----------|
|--------------------------------------------------|-----------|
|--------------------------------------------------|3----------|
|--------------------------------------------------|1--3-1-0-1-|
                                                       . . . .

guitar 1
|--------------------------------------------------------------|
|--------------------------------------------------------------|
|--------------------------------------------------------------|
|--------------------------------------------------------------|
|7-8-5-7-5-------------------------7-8-5-7-5--------3----------|
|----------8-7-8--000-000-000-000------------8-7-8--1--3-1-0-1-|
                  ... ... ... ...                      . . . .
guitar 2
|--------------------------------------------------------------|
|--------------------------------------------------------------|
|--------------------------------------------------------------|
|2-------------------------------------------------------------|
|2---hold-this-note................................-3----------|
|0--------------------------------------------------1--3-1-0-1-|
                                                       . . . .

guitar 1
|--------------------------------------------------------------|
|--------------------------------------------------------------|
|--------------------------------------------------------------|
|--------------------------------------------------------------|
|7-8-5-7-5-------------------------7-8-5-7-5--------3----------|
|----------8-7-8--000-000-000-000------------8-7-8--1--3-1-0-1-|
                  ... ... ... ...                      . . . .
guitar 2
|--------------------------------------------------------------|
|--------------------------------------------------------------|
|--------------------------------------------------------------|
|2-------------------------------------------------------------|
|2---hold-this-note................................-3----------|
|0--------------------------------------------------1--3-1-0-1-|
                                                       . . . .

guitar 1 x3
|--------------------------------------------------------------------|
|--------------------------------------------------------------------|
|--------------------------------------------------------------------|
|--------------------------------------------------------------------|
|7-8-5-7-5-------------------------7-8-5-7-5-------------------------|
|----------8-7-8--000-000-000-000------------8-7-8--111-111--3-1-0-1-|
                  ... ... ... ...                   ... ...  . . . .

|--------------------------------------------------------------|
|--------------------------------------------------------------|
|--------------------------------------------------------------|
|--------------------------------------------------------------|
|7-8-5-7-5-------------------------7-8-5-7-5--------3----------|
|----------8-7-8--000-000-000-000------------8-7-8--1--3-1-0-1-|
                  ... ... ... ...                      . . . .

guitar 2  also plays this riff 3x but first played the same last 2x harmonized
|--------------------------------------------------------------------|
|--------------------------------------------------------------------|
|--------------------------------------------------------------------|
|--------------------------------------------------------------------|
|7-8-5-7-5-------------------------7-8-5-7-5-------------------------|
|----------8-7-8--000-000-000-000------------8-7-8--111-111--3-1-0-1-|
                  ... ... ... ...                   ... ...  . . . .

|--------------------------------------------------------------|
|--------------------------------------------------------------|
|--------------------------------------------------------------|
|--------------------------------------------------------------|
|7-8-5-7-5-------------------------7-8-5-7-5--------3----------|
|----------8-7-8--000-000-000-000------------8-7-8--1--3-1-0-1-|
                  ... ... ... ...                      . . . .
(first time)

guitar 2
|------------------------------------------------------------------------|
|------------------------------------------------------------------------|
|------------------------------------------------------------------------|
|9-10-7-9-7--------------------------9-10-7-9-7--------------------------|
|-----------10-9-10-----------------------------10-9-10------------------|
|-------------------000-000-000-000---------------------111-111--3-1-0-1-|
                    ... ... ... ...                     ... ...  . . . .
|-------------------------------------------------------------------|
|-------------------------------------------------------------------|
|-------------------------------------------------------------------|
|9-10-7-9-7--------------------------9-10-7-9-7---------------------|
|-----------10-9-10-----------------------------10-9-10--3----------|
|-------------------000-000-000-000----------------------1--3-1-0-1-|
                    ... ... ... ...                         . . . .
(second time)
guitar 2
|------------------------------------------------------------------------|
|------------------------------------------------------------------------|
|9-10-7-9-7--------------------------9-10-7-9-7--------------------------|
|-----------10-9-10-----------------------------10-9-10------------------|
|------------------------------------------------------------------------|
|-------------------000-000-000-000---------------------111-111--3-1-0-1-|
                    ... ... ... ...                     ... ...  . . . .
|-------------------------------------------------------------------|
|-------------------------------------------------------------------|
|9-10-7-9-7--------------------------9-10-7-9-7---------------------|
|-----------10-9-10-----------------------------10-9-10-------------|
|--------------------------------------------------------3----------|
|-------------------000-000-000-000----------------------1--3-1-0-1-|
                    ... ... ... ...                         . . . .
(third time)

fill 3 both guitars
|-------------------|
|-------------------|
|-------------------|
|2--3--6--4-------4-|
|2--3--4--2-------2-|
|0--1--4--2--2222-2-|
             ....

Riff 2 x4 under lead guitar
Riff 3 x4

fill 4 both guitars
|---------------------|
|---------------------|
|---------------------|
|----------2--3--6--4-|
|5---3-----2--3--4--2-|
|3-0-1-0---0--1--4--2-|
 . . . .


Riff 1 x2

both guitars
|---------|
|---------|
|---------|
|4------2-|
|2------2-|
|2-2222-0-|
   ....



The End





Comments


Popular Monstrosity tabs & chords
Ceremonial Void Official Tabs
Destroying Divinity Tabs
Dust To Dust Tabs
Final Cremation Tabs
Perpetual War Tabs
The Angels Venom Tabs
The Eye Of Judgement Tabs


Song lyrics



↑ Back to top | Tablatures and chords are parodies/interpretations of the original songs. You may use it for private study, scholarship, research or language learning purposes only
© 2014 AZChords.com Contact us | Privacy policy | DMCA | Add/correct tabs | Request tabs | Top 50 tabs