» » »

Monster Squad, Fire The Faith Bass tabs (ver.2)

Artists:  A B C D E F G H I J K L M N O P Q R S T U V W X Y Z # 

Fire The Faith Bass tabs (ver.2)

Monster Squad Tabs
 Rating:
4/5 (4 votes)
Fire The Faith lessons Tabs too difficult? Try these video lessons and learn fast
1
                (Intro)
yeah, not really perfect but it does its job.


               E  S E  S E  E  S S S S S S     E   S E  S E  E  S S S S S S
G||-------||-------------------------------|--------------------9-9-9-9-9-9-|
D||-------||*------------------9-9-9-9-7-9-|--10--10-9--9-7--9--------------|
A||-------||*--7--7-7--7-5--7--------------|--------------------------------|
E||-------||-------------------------------|--------------------------------|


   E   S  E   S E  E   S  S  S  S  S  S    E  S E  S E  E  S S S S S S
----------------------------------------|-------------------------------||
--10--10-10--10-9--7--12-12-12-12-12-12-|--5--5-4--4-------------------*||
----------------------------------------|------------5--7--7-7-7-7-7-5-*||
----------------------------------------|-------------------------------||
            
Submit corrections

comments powered by Disqus
↑ Back to top | Monster Squad Bass for Fire The Faith. Lyrics for acoustic guitar and electric guitar. 1 Tablatures and chords are parodies/interpretations of the original songs. You may use it for private study, scholarship, research or language learning purposes only