» » »

Wormhole Tabs (ver.1)

Artists:  A B C D E F G H I J K L M N O P Q R S T U V W X Y Z # 

Wormhole Tabs (ver.1)

Monkeysoop
Rating:
0/5 (0 votes)

Tabs too difficult? Try these video lessons and learn fast.
                Band - Monkeysoop
song - Wormhole
Cd - Nuns Night Out

e------------------------------------------------------------------|
b------------------------------------------------------------------|
g-----4p2p0-----------4p2p0-----------4p2p0------------4p2p0-------|
d-333-------4p2p0--333------4p2p0-333-------4p2p0--333-------4p2p0-|
a-222--------------222------------222--------------222-------------|
e------------------------------------------------------------------|


e--------------------------------------------|
b------4444-------4444-------4444-------4444-|
g------3333-------3333-------3333-------3333-|
d------2222-------2222-------2222-------2222-|
a-333--3333--333--3333--333--3333--333--3333-|
e-111--------111--------111--------111-------|

e---------------------------------------------|
b--4444-----4444-----4444-----4444------------|
g--3333-----3333-----3333-----3333------------|
d--2222-----2222-----2222-----2222------------|
a--3333-----3333-----3333-----3333------------|
e---------------------------------------------|

e---------------------------------------------------|
b---------------------------------------------------|
g---------------------------------------------------|
d--------------------------15p14p0------------------|
a--15p14p013p12p0--13p12p0--------13p12p0--13p12p0--|
e----------------15----------------------15---------|

e---------------------------------------------------|
b---------------------------------------------------|
g-------------------------15p14p0-------------------|
d-15p14p013p12p0--13p12p0---------13p12p0--13p12p0--|
a---------------15-----------------------15---------|
e---------------------------------------------------|

e---------------------------------------------------|
b---------------------------------------------------|
g---------------------------------------------------|
d--------------------------15p14p0------------------|
a--15p14p013p12p0--13p12p0--------13p12p0--13p12p0--|
e----------------15----------------------15---------|

e---------------------------------------------------|
b---------------------------------------------------|
g-------------------------15p14p0-------------------|
d-15p14p013p12p0--13p12p0---------13p12p0--13p12p0--|
a---------------15-----------------------15---------|
e---------------------------------------------------|

e------------------------------------------------------|
b------------------------------------------------------|
g------------------------------------------------------|
d----------8----------------5-0------x3----------------|
a-------7-----7---------7-------6----------------------|
e---0-6---6---------0-6---6--------7-------------------|

e----------------------------------------------------|
b----------------------------------------------------|
g----------------------------------------------------|
d----7--6--5----7-------------x3---------------------|
a-------------8----8---------------------------------|
e---------------------9---8--------------------------|

e------------------------------------------------------|
b------------------------------------------------------|
g------------------------------------------------------|
d----------8----------------5-0------x3----------------|
a-------7-----7---------7-------6----------------------|
e---0-6---6---------0-6---6--------7-------------------|

e----------------------------------------------------|
b----------------------------------------------------|
g----------------------------------------------------|
d----7--6--5----7---------------x3-------------------|
a-------------8----8---------------------------------|
e---------------------9---8--------------------------|

e----------------------------------------------------|
b----------------------------------------------------|
g----7--6--5----7---------------x3-------------------|
d-------------8----8---------------------------------|
g---------------------9---8--------------------------|

e----------------------------------------------------|
b----------------------------------------------------|
g----------------------------------------------------|
d-----------0h2p0------------------x16---------------|
a---3--2------------2p0---2--2---5-------------------|
e---1--0------------------1--0---3-------------------|


Solo?

Rest of song?
            
Tabs too difficult? Try these video lessons and learn fast.


comments powered by Disqus
↑ Back to top | Tablatures and chords are parodies/interpretations of the original songs. You may use it for private study, scholarship, research or language learning purposes only