» » »

Kendall Tabs (ver.1)

Artists:  A B C D E F G H I J K L M N O P Q R S T U V W X Y Z # 

Kendall Tabs (ver.1)

Monkeysoop
Rating:
0/5 (0 votes)

Hard to play? Try these video lessons and learn fast.
                part 1 twice
--5--3------------------1--0--------------1-0---------|
--------5--3--1----1----------3----3-----------1------|
------------------------------------------------------|
------------------------------------------------------|
--3--3--3--3--3--3---3----------3------3--------------|
------------------------------------------------------|

part 2 three times

--0--3--2--0-------------------------------3--1--0---|
--------------1----------3--1--0---------------------|
----------------------0------------------------------|
-------------------2--------------------0------------|
--2-----0-----3--3-------------------2---------------|
-----3----------------------------3------------------|

part 4 once
--0--3-----------3-------12--|
---------5---3----------12---|
-----------------------12----|
-----------------0----12-----|
--2------3---2---------------|
-----3-----------------------|

part 5 four times
--7----3-h-7-p-3-----1------------------2---2-h-3-p-2------1----------------|
--3------------------0---0-h-1-p-0------3------------------0---0-h-1-p-0----|
----0------------0-----0------------0-----2-----------2------0------------0-|
----------------------------------------------------------------------------|
----------------------------------------------------------------------------|
----------------------------------------------------------------------------|

part 6 once
--1p0----------------|
------4p2p0----------|
------------4p2p0----|
------------------2--|
---------------------|
---------------------|

part 7 once
Chords  G-D-G-D-G-D-G-D-G

part 5 four times

part 6 once
            
Hard to play? Try these video lessons and learn fast. | Correct




comments powered by Disqus
↑ Back to top | Tablatures and chords are parodies/interpretations of the original songs. You may use it for private study, scholarship, research or language learning purposes only