» » »

Monkeysoop, Bloodwork Tabs (ver.2)

Artists:  A B C D E F G H I J K L M N O P Q R S T U V W X Y Z # 

Bloodwork Tabs (ver.2)

Monkeysoop Tabs
 Rating:
4/5 (4 votes)
Bloodwork lessons Tabs too difficult? Try these video lessons and learn fast
                Band: Monkeysoop

Part 1
e--------5-----3-----2--------------------------------------|
b----------0-----0------0----3-------1-------0------------1-|
g------------0-----0------0-----0-------0-------0---------0-|
d-----0----------------------------0-------0--------0-0h3-0-|
a---2-------------------------------------------------------|
e-0---------------------------------------------------------|

Part2
e-----------------------------------------------------------|
b-----------------------------------------------------------|
g-----------------------------------------------------------|
d-----------------------------------------------------------|
a--5-4-4-3--2---5-4-4-3--2----------------------------------|
e--3-2-2-1--0---3-2-2-1--0----------------------------------|

Part3
e-----------------------------------------------------------|
b-----------------------------------------------------------|
g-----------------------------------------------------------|
d-----------------------------------------------------------|
a---------------------3-5---------------------3-5-----------|
e-0-3p0-0-3p0-0-3p0-0-1-3-0-3p0-0-3p0-0-3p0-0-1-3-----------|


e-----------------------------------------------------------|
b-----------------------------------------------------------|
g-----------------------------------------------------------|
d------------------------------------------------------x3---|
a---------------------3-5---------------------7-5-----------|
e-0-3p0-0-3p0-0-3p0-0-1-3-0-3p0-0-3p0-0-3p0-0-5-3-----------|

Part 4
e-----------------------------------------------------------|
b-----------------------------------------------------------|
g-----------------------------------------------------------|
d--------------------------x3-------------------------------|
a-----------------------------------------------------------|
e-5p3p0-7p5p0-5p3p0-3p2p0-----------------------------------|

Part 5
e-----------------------------------------------------------|
b-----------------------------------------------------------|
g-----------------------------------------------------------|
d-----------------------------x3----------------------------|
a-3-2-0-1-2-0-3-2-0-2-1-0-----------------------------------|
e-3-2-0-1-2-0-3-2-0-2-1-0-----------------------------------|

Part 3 2 times
Part 4 4 times
Part 5 4 times

Part 6
e-----------------------------------------------------------|
b-----------------------------------------------------------|
g-----------------------------------------------------------|
d---------------------------------------------------x3------|
a-3-2-0-3-2-0-3-2-0-3-2-0--5-4-2-5-4-2-5-4-2-5-4-2----------|
e--------------------------3-2-0-3-2-0-3-2-0-5-4-0----------|


Solo?
e-----------------------------------------------------------|
b-----------------------------------------------------------|
g-----------------------------------------------------------|
d--------------------------------x3-------------------------|
a-9h10p9---7h9p7---5h7p5-----5------------------------------|
e--------0-------0-------0-7--------------------------------|

End solo?
            
Submit corrections

comments powered by Disqus
↑ Back to top | Monkeysoop Tabs for Bloodwork. Lyrics for acoustic guitar and electric guitar. Tablatures and chords are parodies/interpretations of the original songs. You may use it for private study, scholarship, research or language learning purposes only