» » »

Monkeysoop, Blades Tabs (ver.1)

Artists:  A B C D E F G H I J K L M N O P Q R S T U V W X Y Z # 

Blades Tabs (ver.1)

Monkeysoop Tabs
 Rating:
4/5 (4 votes)
Blades lessons Tabs too difficult? Try these video lessons and learn fast
1
                Band-Monkeysoop
Song-Blades
Cd-Counterclockwise

Part-1 Guitar-1
e---------------------------------------------------------------|
b---------------------------------------------------------------|
g--------------------------------------------------------x4-----|
d---------------------------------------------------------------|
a--7--7--7--8--7--7--7--8--7--7--7--8--7--7---8--7--8--7--------|
e-0--0--0--0--0--0--0--0--0--0--0--0--0--0--0-------------------|

Part-1 Guitar-2
e---12-10------12-10-------12-10------12--10---------------------|
b----------12----------12---------12--------------------------x3-|
g--9--9--9----9--9--9-----9--9--9----9---9---9--10--9--10--9-----|
d----------------------------------------------------------------|
a----------------------------------------------------------------|
e----------------------------------------------------------------|

Part-2 Guitar-1
e-----------------------------------------------------------------|
b-----------------------------------------------------------------|
g----------------------------------------------------------x2-----|
d--7--7--7--8--7--7--7--8--7--7--7--8--7--7---8--7--8--7----------|
a-0--0--0--0--0--0--0--0--0--0--0--0--0--0--0---------------------|
e-----------------------------------------------------------------|

Part-2 Guitar-2??

Part-1 Guitar-1&2 x2

Part-3 Guitar-1&2
e-----------------------------------------------------------------|
b-----------------------------------------------------------------|
g-----------------------------------------------------------------|
d---------------------------------------------------------x2------|
a-2--2--2--3--2--2--2--3--2--2--2--3--2--2--3--2--3--2------------|
e-0--0--0--1--0--0--0--1--0--0--0--1--0--0--1--0--1--0------------|

Part-4 Guitar-1&2
e-----------------------------------------------------------------|
b-----------------------------------------------------------------|
g-----------------------------------------------------------------|
d----------------------------------------x2-----------------------|
a--3--2----3--2----3--2----3--2------------------2----------------|
e--1--0----1--0----1--0----1--0------------------0----------------|

Part-5 Guitar-1
e--12--11--12--11--12--11--12--11--10--9---10--9---10--9---10--9--|
b-----------------------------------------------------------------|
g-9---9---9---9---9---9---9---9---7---7---7---7---7---7---7---7---|
d-----------------------------------------------------------------|
a-----------------------------------------------------------------|
e-----------------------------------------------------------------|

Part-5 Guitar-2????

Part-1 Guitar-1 x4
Part-4 Guitar-1 x2

End solo????
            
Submit corrections

comments powered by Disqus
↑ Back to top | Monkeysoop Tabs for Blades. Lyrics for acoustic guitar and electric guitar. 1 Tablatures and chords are parodies/interpretations of the original songs. You may use it for private study, scholarship, research or language learning purposes only