» » »

Mondo Generator, Jr. High Love Bass tabs (ver.1)

Artists:  A B C D E F G H I J K L M N O P Q R S T U V W X Y Z # 

Jr. High Love Bass tabs (ver.1)

Mondo Generator Tabs
 Rating:
4/5 (4 votes)
Jr. High Love lessons Tabs too difficult? Try these video lessons and learn fast
1
                Intro            x3
G------------------|-----------------|
D------------------|-----------------|
A----------5-5-5-5-|-7-7-7-7-7-7-7-7-|
E-5-5-5-5----------|-----------------|

Verse             x4
G------------------|
D------------------|
A----------5-5-5-5-|
E-5-5-5-5----------|

Chorus                                  x2
G-----------------------------------------|
D-----------------------------------------|
A-12-12-12-12-10-10-10-10-5-5-5-5-5-5-5-5-|
E-----------------------------------------|

G-----------------------------------|
D-----------------------------------|
A----------5-5-5-5---------7-777777-|
E--5-5-5-5---------5-5-5-5----------|

Verse             x4
G------------------|
D------------------|
A----------5-5-5-5-|
E-5-5-5-5----------|

Chorus                                  x2
G-----------------------------------------|
D-----------------------------------------|
A-12-12-12-12-10-10-10-10-5-5-5-5-5-5-5-5-|
E-----------------------------------------|

Bridge
G-------------------------|
D-------------------------|
A-4-4-4-4-4-4-------------|
E-------------5-5-5-5-5-5-|

Solo             x4
G------------------|
D------------------|
A----------5-5-5-5-|
E-5-5-5-5----------|

Chorus                                  x2
G-----------------------------------------|
D-----------------------------------------|
A-12-12-12-12-10-10-10-10-5-5-5-5-5-5-5-5-|
E-----------------------------------------|
            
Submit corrections

comments powered by Disqus
↑ Back to top | Mondo Generator Bass for Jr. High Love. Lyrics for acoustic guitar and electric guitar. 1 Tablatures and chords are parodies/interpretations of the original songs. You may use it for private study, scholarship, research or language learning purposes only