» » »

I Never Sleep Bass tabs (ver.1)

Artists:  A B C D E F G H I J K L M N O P Q R S T U V W X Y Z # 

I Never Sleep Bass tabs (ver.1)

Mondo Generator
Rating:
0/5 (0 votes)

Hard to play? Try these video lessons and learn fast.
                Intro/Chorus
G-------------------------------------------------|
D-------------------------------------------------|
A-------------------------------------------------|
E-5--3-3-5--3-3-5--3-3-5--3-3--1-1--1-3-3-1-1-3-1-|


Verse
G---------------------------------------------------------------------|
D-----------------------------------------------------3-3-3-3-3-3-3-3-|
A-0-0-0-0-0-0-0-0-0-0-0-0-0-0-0-0-0-0-3-3-3-3-3-3-3-3-----------------|
E---------------------------------------------------------------------|


Solo                                                            x2
G-----4-4-----4-4-----4-4-----4-4-----7-7-----7-7-----7-7-----7-7-|
D-----------------------------------------------------------------|
A-2-2-----2-2-----2-2-----2-2-----5-5-----5-5-----5-5-----5-5-----|
E-----------------------------------------------------------------|
                                                                       
G-----9-9-----9-9-----9-9-----9-9------1212------1212------1212------1212-|
D-------------------------------------------------------------------------|
A-7-7-----7-7-----7-7-----7-7-----1010------1010------1010------1010------|
E-------------------------------------------------------------------------|

G-----9-9-----9-9-----9-9-----9-9------1212------1212-1210-10-------------|
D-------------------------------------------------------------12-12-10-10-|
A-7-7-----7-7-----7-7-----7-7-----1010------1010--------------------------|
E-------------------------------------------------------------------------|
            
Hard to play? Try these video lessons and learn fast. | Correct




comments powered by Disqus
↑ Back to top | Tablatures and chords are parodies/interpretations of the original songs. You may use it for private study, scholarship, research or language learning purposes only