» » »

Mondo Generator, Here We Come Bass tabs (ver.1)

Artists:  A B C D E F G H I J K L M N O P Q R S T U V W X Y Z # 

Here We Come Bass tabs (ver.1)

Mondo Generator Tabs
 Rating:
4/5 (4 votes)
Here We Come lessons Tabs too difficult? Try these video lessons and learn fast
1
                Intro/Chorus                           x3
G----------------------------------------|
D----------------------------------------|
A-2--2-0--0-3-3-3-3--2-0-2--2--0---------|
E--------------------------------2-2-2-2-|

Verse                                           x2
G-------------------------------------------------|
D--------0--0-0-2-2-4-4-4-4--------0--0-0-2-2-2-2-|
A-2--2-2--------------------2--2-2----------------|
E-------------------------------------------------|

Chorus                                 x4
G----------------------------------------|
D----------------------------------------|
A-2--2-0--0-3-3-3-3--2-0-2--2--0---------|
E--------------------------------2-2-2-2-|

Verse                                           x2
G-------------------------------------------------|
D--------0--0-0-2-2-4-4-4-4--------0--0-0-2-2-2-2-|
A-2--2-2--------------------2--2-2----------------|
E-------------------------------------------------|

Chorus                                 x4
G----------------------------------------|
D----------------------------------------|
A-2--2-0--0-3-3-3-3--2-0-2--2--0---------|
E--------------------------------2-2-2-2-|


Bridge            x3
G-------------------|-----------------------------|
D-------------------|-----------------------------|
A-------5-5-3-3-2-2-|-5-5-3-3-2-2-0-0-2-2-3-3-5-5-|
E-0-----------------|-----------------------------|

Chorus                                 x4
G----------------------------------------|
D----------------------------------------|
A-2--2-0--0-3-3-3-3--2-0-2--2--0---------|
E--------------------------------2-2-2-2-|
            
Submit corrections

comments powered by Disqus
↑ Back to top | Mondo Generator Bass for Here We Come. Lyrics for acoustic guitar and electric guitar. 1 Tablatures and chords are parodies/interpretations of the original songs. You may use it for private study, scholarship, research or language learning purposes only