» » »

Four Corners Tabs (ver.1)

Artists:  A B C D E F G H I J K L M N O P Q R S T U V W X Y Z # 

Four Corners Tabs (ver.1)

Mondo Generator
Rating:
5/5 (2 votes)

Hard to play? Try these video lessons and learn fast.
                
INTRO & VERSE:
e|---x--------------------------------------------| 
B|---x--------------------------------------------|
G|---x--------------------------------------------|
D|--10--10--10-10--10-9-10--10-10-10/9/10/9-------|
A|---0--0----0--0--0--0--0--0---0-0-0--0--0-------|
E|---x--------------------------------------------|

e|---x--------------------------------------------| 
B|---x--------------------------------------------|
G|---x--------------------------------------------|
D|---x--------------------------------------------|
A|--10--10--10-10--10-9-10--10-10-10/9/10/9-------|
E|---0--0----0--0--0--0--0--0---0-0-0--0--0-------|

[Mark]
Four corners of a dream
Ain't exactly what it seems
Transparent, hands of time
God damn, you know I robbed myself blind

CHORUS:
e|-------------------------------------------------| 
B|-------------------------------------------------|
G|---4--4--4-4-4--4/5--5-5-5-5-5-5-----------------|
D|---4--4--4-4-4--4/5--5-5-5-5-5-5-----------------|
A|---2--2--2-2-2--2/3--3-3-3-3-3-3-----------------|
E|-------------------------------------------------|

e|-------------------------------------------------| 
B|-------------------------------------------------|
G|---9--9--9/10-9--9--9----------------------------|
D|---9--9--9/10-9--9--9----------------------------|
A|---7--7--7/8--7--7--7----------------------------|
E|-------------------------------------------------|

[Nick]
Stole what was mine
It's all mine
Give it back
I left it behind
I don't mind

VERSE:
[Mark]
Can't believe what they said
Disturbed in my head
Left alone and left tired
Sleep's a dream
And everyone's wired

CHORUS + SOLO + CHORUS

VERSE:
[Mark]
Lost days
Where the f**k have I been
No end and nowhere to begin
Where the f**k have I been
I got no time for time
I got no time for time
Lost days
Where the f**k have I been
            
Hard to play? Try these video lessons and learn fast. | Correct




comments powered by Disqus
↑ Back to top | Tablatures and chords are parodies/interpretations of the original songs. You may use it for private study, scholarship, research or language learning purposes only