» » »

Mondo Generator, 13th Floor Tabs (ver.1)

Artists:  A B C D E F G H I J K L M N O P Q R S T U V W X Y Z # 

13th Floor Tabs (ver.1)

Mondo Generator Tabs
Rating:
5/5 (1 vote)
13th Floor lessons Tabs too difficult? Try these video lessons and learn fast
                MONDO GENERATOR - 13th Floor (Tension Head)

Intro riff
C |--------------------------|
G |--------------------------|
Eb|--------------------------|
Bb|--------------------------|
F |----7--6-----5------------|
C |-0--------7-----6--0--5b~-|


Verse riff
C |---------------|---------------|---------------|---------------|
G |---------------|---------------|---------------|---------------|
Eb|---12-12-12-12-|---12-12-12-12-|---12-12-12-12-|---12-12-12-12-|
Bb|---------------|---------------|---------------|---------------|
F |---10-10-10-10-|---10-10-10-10-|---10-10-10-10-|---10-10-10-10-|
C |-0~~~~~~~~~~~~-|-0~~~~~~~~~~~~-|-0~~~~~~~~~~~~-|-0~~~~~~~~~~~~-|


Verse riff 2 (played at the end of each riff)
C |---------------|
G |---------------|
Eb|---12-14-15-17-|
Bb|---------------|
F |---10-12-13-15-|
C |-0-------------|


Chorus Riff
C |-----------------------------------|-----------------------------------|
G |-----------------------------------|-----------------------------------|
Eb|-----------------------------------|-----------------------------------|
Bb|------------------5-5-5-5--5-5-5-5-|----------7-------5-5-5-5--5-5-5-5-|
F |----7--6----------5-5-5-5--5-5-5-5-|----7--6----------5-5-5-5--5-5-5-5-|
C |-0--------7--(0)--3-3-3-3--2-2-2-2-|-0-----------(0)--3-3-3-3--2-2-2-2-|


Bridge
C |-------------------|-------------------|-------------------|
G |-------------------|-------------------|-------------------|
Eb|-8s9-9--8s9-9--8s9-|-------------------|-------------------|
Bb|-8s9-9--8s9-9--8s9-|-4s5-5--4s5-5--4s5-|-6s7-7--6s7-7--6s7-|
F |-6s7-7--6s7-7--6s7-|-4s5-5--4s5-5--4s5-|-6s7-7--6s7-7--6s7-|
C |-------------------|-2s3-3--2s3-3--2s3-|-4s5-5--4s5-5--4s5-|

C |-------------------|-------------------|-------------------|
G |-------------------|-------------------|-------------------|
Eb|-------------------|-8s9-9--8s9-9--8s9-|-------------------|
Bb|-4s5-5--4s5-5--4s5-|-8s9-9--8s9-9--8s9-|-4s5-5--4s5-5--4s5-|
F |-4s5-5--4s5-5--4s5-|-6s7-7--6s7-7--6s7-|-4s5-5--4s5-5--4s5-|
C |-2s3-3--2s3-3--2s3-|-------------------|-2s3-3--2s3-3--2s3-|

C |-------------------|----|
G |-------------------|----|
Eb|-------------------|----| - Play the root notes if
Bb|-6s7-7--6s7-7--6s7-|-5~-|   the strums are too tricky.
F |-6s7-7--6s7-7--6s7-|-5~-|
C |-4s5-5--4s5-5--4s5-|-3~-|


************************************

| s   slide
| ~   vibrato
| b   bend
| ()  optional notes

************************************
            

comments powered by Disqus
↑ Back to top | Mondo Generator Tabs for 13th Floor. Lyrics for acoustic guitar and electric guitar. Tablatures and chords are parodies/interpretations of the original songs. You may use it for private study, scholarship, research or language learning purposes only