» » »

Molotov, Rastaman-Dita Tabs (ver.1)

Artists:  A B C D E F G H I J K L M N O P Q R S T U V W X Y Z # 

Rastaman-Dita Tabs (ver.1)

Molotov Tabs
Rating:
0/5 (0 votes)
Rastaman-Dita lessons Tabs too difficult? Try these video lessons and learn fast
                I really can't believe there were no guitar tabs for this GREAT band until I tabbed this. Keep listening to them, and if you can submit a tab, it would be great.

Standard tuning
x = palm mute

Intro
--------------------------------------------------
--------------------------------------------------
--5-----------------------------------------------
--5----------------------------------------------- (repeat this chord
--3-----------------------------------------------  many times)
--------------------------------------------------

Pre verse
--------------------------------------------------
--------------------------------------------------
--------------------------------------------------
-10-10-10-10-8--------8-8-------------------------
----------------10-10-----------------------------
--------------------------------------------------
  x  x  x  x x   x  x x x

--------------------------------------------------
--------------------------------------------------
------------------------7h8-----------------------
-10-10-10-10-8------------------------------------
----------------10-10-----------------------------
--------------------------------------------------
  x  x  x  x x   x  x

Verse
--------------------------------------------------
--------------------------------------------------
---------5----------------------------------------
---------5------5---------------------------------
---------3------5---------------------------------
----------------3---------------------------------


Pre chorus 
--------------------------------------------------
---------1-----------------------1----------------
-----0-3---0--3-2-0---------0-3---0-3--0-2h3-2p0--
--------------------3-3--------------------------3
-3-3--------------------3-3-----------------------
--------------------------------------------------

Chorus
--------------------------------------------------
--------------------------------------------------
--5-----------------------------------------------
--5--5-----------5-------(finish it picking this-- (just repeat these 
--3--5---------------------note really fast)------  chords adding 
-----3--------------------------------------------   some scratches)

Bridge
--------------------------------------------------
--------------------------------------------------
-0-5h8p5-5h8p5--4h7-4-2-2-0-0---------------------
--------------------------------------------------
--------------------------------------------------
--------------------------------------------------

--------------------------------------------------
----------------3---------------------------------
-0-5-8-5-8-5--4---4-5-----------------------------
--------------------------------------------------
--------------------------------------------------
--------------------------------------------------

--------------------------------------------------
--------------------------------------------------
-0-5h8p5-5h8p5--4h7-4-2-2-0-0---------------------
--------------------------------------------------
--------------------------------------------------
--------------------------------------------------

--------------------------------------------------
---------------3-3-3--4-4-------------------------
-0-5-8-5-8-5---4-4-4--5-5-------------------------
--------------------------------------------------
--------------------------------------------------
--------------------------------------------------

2nd verse
--------------------------------------------------
--------------------------------------------------
-0-5-5-8-5-8-5--0-4-4-7-4-7-4---------------------
--------------------------------------------------
--------------------------------------------------
--------------------------------------------------

--------------------------------------------------
--------------------------------------------------
-5-5-8-5-8-5--0-4-4-7-4-7-4-----------------------
--------------------------------------------------
--------------------------------------------------
--------------------------------------------------

--------------------------------------------------
--------------------------------------------------
-0-4-0-4-0-------2---2-----5-8-5-8-5--4-4-7-4-5---
-------------3-3---3---3--------------------------
--------------------------------------------------
-------------------------------------------------- (after this, play 
                                                     the chords)

Outro
--------------------------------------------------
--------------------------------------------------
-----------------------5----5-5-5-----------------
---1-0----3-1----1-----5----5-5-5-----------------
-3------3------3---1---3----3-3-3-----------------
--------------------------------------------------
            

comments powered by Disqus
↑ Back to top | Molotov Tabs for Rastaman-Dita. Lyrics for acoustic guitar and electric guitar. Tablatures and chords are parodies/interpretations of the original songs. You may use it for private study, scholarship, research or language learning purposes only