» » »

Que No Te Haga Bobo Jacobo Bass tabs (ver.1)

Artists:  A B C D E F G H I J K L M N O P Q R S T U V W X Y Z # 

Que No Te Haga Bobo Jacobo Bass tabs (ver.1)

Molotov
Rating:
0/5 (0 votes)

Hard to play? Try these video lessons and learn fast.
                Moltov
Que no te haga Bobo Jacobo
Donde Jugaran las Niñas

This is an awesome song, the slap solos just kick ass...
I really did my best. If you find any erros just
The tablature that someone uploaded of this song
was completly wrong, I just started laughing out very
loud... Who tabbed that one? I think it was Lewinsky
while making a job.


Intro

Pop & Slap

G|-9s--------7-|-----5-----3-|
D|-----9p7h9s--|-5h7s--3h5s--|
A|-------------|-------------|
E|-------------|-------------|

Verse

G|------------------|--------------------|------------------|--------------------|
D|------------------|--------------------|------------------|--------------------|
A|------------------|--------------------|------------------|--------------------| 
X4
E|-0--0x---0--3--2--|-2-0--0x--0-3-4-5-3-|-0--0x---0--3--2--|-2-0--0x---0-5-4-3~-|

G|------------------|--------------------|
D|------------------|--------------------|
A|------------------|--------------------| X2
E|-0--0--3~--0-3-2x-|-0-3-2x---0-3-2-3~--|

Interlude

G|---------------|---------------|-------------|-------------|
D|---------------|-----------2~--|-------------|-------0--2--|
A|-2-0-2-0-2-5~--|-2-0-2-0-2-----|-2-0-2-0-2--0|-2--4--------| X2
E|---------------|---------------|-------------|-------------|

Second Verse

G|------------------|--------------------|------------------|--------------------|
D|------------------|--------------------|------------------|--------------------|
A|------------------|--------------------|------------------|--------------------| 
X2
E|-0--0x---0--3--2--|-2-0--0x--0-3-4-5-3-|-0--0x---0--3--2--|-2-0--0x---0-5-4-3~-|

G|------------------|--------------------|
D|------------------|--------------------|
A|------------------|--------------------| X2
E|-0--0--3~--0-3-2x-|-0-3-2x---0-3-2-3~--|

Chorus

G|---------------|---------------|------------|------------------------------|
D|---------------|-----------2~--|------------|Que no te haga bobo Jacobo!---|
A|-2-0-2-0-2-5~--|-2-0-2-0-2-----|-2-0-2-0-2X-|Que no te haga bruto ese puto!| X3
E|---------------|---------------|------------|------------------------------|

G|---------------|---------------|
D|---------------|-----------2~--|
A|-2-0-2-0-2-5~--|-2-0-2-0-2-----|
E|---------------|---------------|

Third Verse

G|---------------|--------------|
D|---------------|--------------|
A|---------------|--------------| X4
E|-2-0-0---2-0-0-|-2-0-0---2-0-0|

G|------------------|--------------------|
D|------------------|--------------------|
A|------------------|--------------------| X2
E|-0--0--3~--0-3-2x-|-0-3-2x---0-3-2-3~--|

Chorus

G|---------------|---------------|------------|------------------------------|
D|---------------|-----------2~--|------------|Que no te haga bobo Jacobo!---|
A|-2-0-2-0-2-5~--|-2-0-2-0-2-----|-2-0-2-0-2X-|Que no te haga bobo Jacobo!---| X3
E|---------------|---------------|------------|------------------------------|

G|---------------|---------------|
D|---------------|-----------2~--|
A|-2-0-2-0-2-5~--|-2-0-2-0-2-----|
E|---------------|---------------|

Bass Solo
Pop 7 Slap

G|-9s-------9s------9------9-|-7s-------7s------7------7-|
D|---9p7h9s---9p7h9s-9p7h9s--|---7p5h7s---7p5h7s-7p5h7s--|
A|---------------------------|---------------------------|
E|---------------------------|---------------------------|

G|12s------12s-------12s------12s|15s------15s-------15s------15s|
D|---10h12s----10h12s---10h12s---|---13h15s----13h15s---13h15s---|
A|-------------------------------|-------------------------------|
E|-------------------------------|-------------------------------|


Interlude                              Second bar
                                       *---*
G|------------------|----------------------|
D|------------------|-------------------5s-|
A|------------------|----------------------| X2
E|-0--0--3~--0-3-2x-|-0-3-2x---0-3-2-3~----|

Last Chorus

G|---------------|---------------|------------|------------------------------|
D|---------------|-----------2~--|------------|Que no te haga bobo Jacobo!---|
A|-2-0-2-0-2-5~--|-2-0-2-0-2-----|-2-0-2-0-2X-|Que no te haga bobo Jacobo!---| X3
E|---------------|---------------|------------|------------------------------|

G|------------------|
D|------------------|
A|------------------|
E|-7-7-7-7-7-7 5~---|

Outro
Pop & Slap

G|-9s--------7-|---------------7s|
D|-----9p7h9s--|-5h7s7s7s7-3h5s--|
A|-------------|-----------------|
E|-------------|-----------------|
            
Hard to play? Try these video lessons and learn fast. | Correct




comments powered by Disqus
↑ Back to top | Tablatures and chords are parodies/interpretations of the original songs. You may use it for private study, scholarship, research or language learning purposes only