» » »

Molotov, Parasito Bass tabs (ver.1)

Artists:  A B C D E F G H I J K L M N O P Q R S T U V W X Y Z # 

Parasito Bass tabs (ver.1)

Molotov Tabs
Rating:
0/5 (0 votes)
Parasito lessons Tabs too difficult? Try these video lessons and learn fast
                Intro
G|-----|x7
D|-----|
A|-----|
E|-(2)-|

 |-------------|x4
 |---------2-4-|
 |------44-----|
 |-2--2--------|

Verso
G|---------------------|x4
D|---------------------|
A|-----1---1---1---1-2-|
E|-2--2-2-2-2-2-2-2----|

Coro
G|-------------|x8
D|---------2-4-|
A|------44-----|
E|-2--2--------|

Verso
G|---------------------|x4
D|---------------------|
A|-----1---1---1---1-2-|
E|-2--2-2-2-2-2-2-2----|

Coro
G|-------------|x8
D|---------2-4-|
A|------44-----|
E|-2--2--------|

Puente ('Dicen que...')
G|-----|x4 |-----|x4
D|-2-4-|   |-----|
A|-----|   |-2---|
E|-----|   |---2-|

Verso **2VECES**
G|---------------------|x4
D|---------------------|
A|-----1---1---1---1-2-|
E|-2--2-2-2-2-2-2-2----|

Coro
G|-------------|x8
D|---------2-4-|
A|------44-----|
E|-2--2--------|

Puente 2 ('Ey ya!, ya tranquilo men...')
G|--------|x4
D|--------|
A|-2--0-2-|
E|--------|

Coro
G|-------------|x8
D|---------2-4-|
A|------44-----|
E|-2--2--------|
            
Submit corrections

comments powered by Disqus
↑ Back to top | Molotov Bass for Parasito. Lyrics for acoustic guitar and electric guitar. Tablatures and chords are parodies/interpretations of the original songs. You may use it for private study, scholarship, research or language learning purposes only