» » »

Molotov, Noko Bass tabs (ver.1)

Artists:  A B C D E F G H I J K L M N O P Q R S T U V W X Y Z # 

Noko Bass tabs (ver.1)

Molotov Tabs
 Rating:
4/5 (4 votes)
Noko lessons Tabs too difficult? Try these video lessons and learn fast
1
                
Please rate this tab.

Intro 	  The other Bass:
G|-----|      |-----| lot of times until 
D|-----|      |-----| the bridge 1
A|-----|      |-----|
E|--7--|      |-----|
B|-----|      |-12--|

Bridge 1 x 4 (both Basses)
G|----------------------------------------|
D|-------9--9-9----9--9-------------------|
A|----------------------------------------|
E|--7-7---7-----7---------10-10-10-12-10--|
B|----------------------------------------|

Verse x2 
(1º Bajo) Micky
G|-----------------------------------------------------------------------------|
D|-----------------------------------------------------------------------------|
A|-----------------------------------------------------------------------------|
E|-----------------------------------------------------------------------------|
B|-1212121212121212121212121212121212121212121212121212121212-10-10-10-12-10---|

(2º Bass) Paco
G|-------------------------------------------------| both basses play at the 
D|-------------------------------------------------| same time 
A|-------------------------------------------------| 
E|--7777777777777777777777777777-10-10-10-12-10----|
B|-------------------------------------------------|


Chorus x 4 (Both basses)
G|------------------------------------|
D|------------------------------------|
A|------------------------------------|
E|--7-7-5-7-7-5-7---10-10-10-12-10----|
B|------------------------------------|

Bridge 1 x 4 (Both basses)
G|----------------------------------------|
D|-------9--9-9----9--9-------------------|
A|----------------------------------------|
E|--7-7---7-----7---------10-10-10-12-10--|
B|----------------------------------------|

Verse 
(1º Bass) Micky
G|----------------------------------------------------------------------------|
D|----------------------------------------------------------------------------|
A|----------------------------------------------------------------------------|
E|----------------------------------------------------------------------------|
B|-12-12-12-12-12-12-12-12-12-12-12-12-12-12-12-12-12-12-12-12-12-12-12-12-12-|

Verse x 2  (during the guitar solo)
(1º Bass) Micky
G|-----------------------------------------------------------------------------|
D|-----------------------------------------------------------------------------|
A|-----------------------------------------------------------------------------|
E|-----------------------------------------------------------------------------|
B|-1212121212121212121212121212121212121212121212121212121212-10-10-10-12-10---|

(2º Bass) Paco
G|-------------------------------------------------| 
D|-------------------------------------------------| 
A|-------------------------------------------------|
E|--7777777777777777777777777777-10-10-10-12-10----|
B|-------------------------------------------------|

Chorus  x 8 (Both Basses)
G|------------------------------------|
D|------------------------------------|
A|------------------------------------|
E|--7-7-5-7-7-5-7---10-10-10-12-10----|
B|------------------------------------|

Bridge 1 (Variation)(Both Basses)                   Last time:
G|----------------------------------------------|  |-----------------------|
D|---------12---12-12-----12---12---------------|  |-----------------------|
A|----------------------------------8-8-8-10-8--|  |--5-5-5-4-3------------|
E|--10-10----10-------10------------------------|  |-----------------------|
B|----------------------------------------------|  |-----------------------|

During the 2nd guitar solo(bass enters in the end)x 4
G|---------|-------------------------------------------------|
D|---------|-------------------------------------------------|
A|---------|-------------------------------------------------|
E|---------|----------------------------10-10-10-12-10-------|
B|--7/10\7-|-12-12-12-12-12-12-12-12-12----------------------|
The part of the slides is played once.

Chorus x 8 (Both Basses)
G|------------------------------------|
D|------------------------------------|
A|------------------------------------|
E|--7-7-5-7-7-5-7---10-10-10-12-10----|
B|------------------------------------|

Bridge 1 x 4 (Both Basses)
G|----------------------------------------|
D|-------9--9-9----9--9-------------------|
A|----------------------------------------|
E|--7-7---7-----7---------10-10-10-12-10--|
B|----------------------------------------|

Final  (Both Basses)
G|----------------------------------------------------|
D|----------------------------------------------------|
A|----------------------------------------------------|
E|--7-5-----7-5------7-5-----7-5-----7-5----7-5-------|
B|------8-7-----8-7------8-7-----8-7-----8-7-----8-7--|


G|-------------------------------------------|
D|-------------------------------------------|
A|-------------------------------------------|
E|-------------------------------------------|
B|--10~---10-10-12-10----5~---10-10-10-12-10-|

That´s it. This tab is 100% correct. ´cause I went to the concert in La Paz Bolivia and I checked it.


Daniel




							Viva Bolivia c@r@jo
            
Submit corrections

comments powered by Disqus
↑ Back to top | Molotov Bass for Noko. Lyrics for acoustic guitar and electric guitar. 1 Tablatures and chords are parodies/interpretations of the original songs. You may use it for private study, scholarship, research or language learning purposes only